  0
SECTION
  2
HEADER
  9
$ACADVER
  1
AC1015
  9
$ACADMAINTVER
 70
     6
  9
$DWGCODEPAGE
  3
ANSI_1254
  9
$INSBASE
 10
0.0
 20
0.0
 30
0.0
  9
$EXTMIN
 10
0.0
 20
0.0
 30
0.0
  9
$EXTMAX
 10
279.4
 20
215.9
 30
0.0
  9
$LIMMIN
 10
0.0
 20
0.0
  9
$LIMMAX
 10
279.4
 20
215.9
  9
$ORTHOMODE
 70
     0
  9
$REGENMODE
 70
     1
  9
$FILLMODE
 70
     1
  9
$QTEXTMODE
 70
     0
  9
$MIRRTEXT
 70
     1
  9
$LTSCALE
 40
1.0
  9
$ATTMODE
 70
     1
  9
$TEXTSIZE
 40
3.5
  9
$TRACEWID
 40
1.0
  9
$TEXTSTYLE
  7
Standard
  9
$CLAYER
  8
0
  9
$CELTYPE
  6
ByLayer
  9
$CECOLOR
 62
   256
  9
$CELTSCALE
 40
1.0
  9
$DISPSILH
 70
     0
  9
$DIMSCALE
 40
1.0
  9
$DIMASZ
 40
3.5
  9
$DIMEXO
 40
1.0
  9
$DIMDLI
 40
3.75
  9
$DIMRND
 40
0.0
  9
$DIMDLE
 40
0.0
  9
$DIMEXE
 40
1.0
  9
$DIMTP
 40
0.0
  9
$DIMTM
 40
0.0
  9
$DIMTXT
 40
3.5
  9
$DIMCEN
 40
2.5
  9
$DIMTSZ
 40
0.0
  9
$DIMTOL
 70
     0
  9
$DIMLIM
 70
     0
  9
$DIMTIH
 70
     1
  9
$DIMTOH
 70
     1
  9
$DIMSE1
 70
     0
  9
$DIMSE2
 70
     0
  9
$DIMTAD
 70
     1
  9
$DIMZIN
 70
     0
  9
$DIMBLK
  1

  9
$DIMASO
 70
     1
  9
$DIMSHO
 70
     1
  9
$DIMPOST
  1

  9
$DIMAPOST
  1

  9
$DIMALT
 70
     0
  9
$DIMALTD
 70
     3
  9
$DIMALTF
 40
0.0393700787
  9
$DIMLFAC
 40
1.0
  9
$DIMTOFL
 70
     1
  9
$DIMTVP
 40
0.0
  9
$DIMTIX
 70
     0
  9
$DIMSOXD
 70
     0
  9
$DIMSAH
 70
     0
  9
$DIMBLK1
  1

  9
$DIMBLK2
  1

  9
$DIMSTYLE
  2
ISO-25
  9
$DIMCLRD
 70
     0
  9
$DIMCLRE
 70
     0
  9
$DIMCLRT
 70
     0
  9
$DIMTFAC
 40
1.0
  9
$DIMGAP
 40
1.524
  9
$DIMJUST
 70
     0
  9
$DIMSD1
 70
     0
  9
$DIMSD2
 70
     0
  9
$DIMTOLJ
 70
     0
  9
$DIMTZIN
 70
     0
  9
$DIMALTZ
 70
     0
  9
$DIMALTTZ
 70
     0
  9
$DIMUPT
 70
     0
  9
$DIMDEC
 70
     2
  9
$DIMTDEC
 70
     2
  9
$DIMALTU
 70
     2
  9
$DIMALTTD
 70
     3
  9
$DIMTXSTY
  7
Standard
  9
$DIMAUNIT
 70
     0
  9
$DIMADEC
 70
     2
  9
$DIMALTRND
 40
0.0
  9
$DIMAZIN
 70
     0
  9
$DIMDSEP
 70
    44
  9
$DIMATFIT
 70
     3
  9
$DIMFRAC
 70
     0
  9
$DIMLDRBLK
  1

  9
$DIMLUNIT
 70
     2
  9
$DIMLWD
 70
    -2
  9
$DIMLWE
 70
    -2
  9
$DIMTMOVE
 70
     0
  9
$LUNITS
 70
     2
  9
$LUPREC
 70
     2
  9
$SKETCHINC
 40
1.0
  9
$FILLETRAD
 40
10.0
  9
$AUNITS
 70
     0
  9
$AUPREC
 70
     2
  9
$MENU
  1
.
  9
$ELEVATION
 40
0.0
  9
$PELEVATION
 40
0.0
  9
$THICKNESS
 40
0.0
  9
$LIMCHECK
 70
     0
  9
$CHAMFERA
 40
0.0
  9
$CHAMFERB
 40
0.0
  9
$CHAMFERC
 40
0.0
  9
$CHAMFERD
 40
0.0
  9
$SKPOLY
 70
     0
  9
$TDCREATE
 40
2458985.718075278
  9
$TDUCREATE
 40
2458985.593075278
  9
$TDUPDATE
 40
2458985.718075532
  9
$TDUUPDATE
 40
2458985.593075532
  9
$TDINDWG
 40
0.0000000116
  9
$TDUSRTIMER
 40
0.0000000116
  9
$USRTIMER
 70
     1
  9
$ANGBASE
 50
0.0
  9
$ANGDIR
 70
     0
  9
$PDMODE
 70
     0
  9
$PDSIZE
 40
-1.0
  9
$PLINEWID
 40
0.0
  9
$SPLFRAME
 70
     0
  9
$SPLINETYPE
 70
     6
  9
$SPLINESEGS
 70
     8
  9
$HANDSEED
  5
DD
  9
$SURFTAB1
 70
     6
  9
$SURFTAB2
 70
     6
  9
$SURFTYPE
 70
     6
  9
$SURFU
 70
     6
  9
$SURFV
 70
     6
  9
$UCSBASE
  2

  9
$UCSNAME
  2

  9
$UCSORG
 10
0.0
 20
0.0
 30
0.0
  9
$UCSXDIR
 10
1.0
 20
0.0
 30
0.0
  9
$UCSYDIR
 10
0.0
 20
1.0
 30
0.0
  9
$UCSORTHOREF
  2

  9
$UCSORTHOVIEW
 70
     0
  9
$UCSORGTOP
 10
0.0
 20
0.0
 30
0.0
  9
$UCSORGBOTTOM
 10
0.0
 20
0.0
 30
0.0
  9
$UCSORGLEFT
 10
0.0
 20
0.0
 30
0.0
  9
$UCSORGRIGHT
 10
0.0
 20
0.0
 30
0.0
  9
$UCSORGFRONT
 10
0.0
 20
0.0
 30
0.0
  9
$UCSORGBACK
 10
0.0
 20
0.0
 30
0.0
  9
$PUCSBASE
  2

  9
$PUCSNAME
  2

  9
$PUCSORG
 10
0.0
 20
0.0
 30
0.0
  9
$PUCSXDIR
 10
1.0
 20
0.0
 30
0.0
  9
$PUCSYDIR
 10
0.0
 20
1.0
 30
0.0
  9
$PUCSORTHOREF
  2

  9
$PUCSORTHOVIEW
 70
     0
  9
$PUCSORGTOP
 10
0.0
 20
0.0
 30
0.0
  9
$PUCSORGBOTTOM
 10
0.0
 20
0.0
 30
0.0
  9
$PUCSORGLEFT
 10
0.0
 20
0.0
 30
0.0
  9
$PUCSORGRIGHT
 10
0.0
 20
0.0
 30
0.0
  9
$PUCSORGFRONT
 10
0.0
 20
0.0
 30
0.0
  9
$PUCSORGBACK
 10
0.0
 20
0.0
 30
0.0
  9
$USERI1
 70
     0
  9
$USERI2
 70
     0
  9
$USERI3
 70
     0
  9
$USERI4
 70
     0
  9
$USERI5
 70
     0
  9
$USERR1
 40
0.0
  9
$USERR2
 40
0.0
  9
$USERR3
 40
0.0
  9
$USERR4
 40
0.0
  9
$USERR5
 40
0.0
  9
$WORLDVIEW
 70
     1
  9
$SHADEDGE
 70
     3
  9
$SHADEDIF
 70
    70
  9
$TILEMODE
 70
     1
  9
$MAXACTVP
 70
    64
  9
$PINSBASE
 10
0.0
 20
0.0
 30
0.0
  9
$PLIMCHECK
 70
     0
  9
$PEXTMIN
 10
1.0000000000E+20
 20
1.0000000000E+20
 30
1.0000000000E+20
  9
$PEXTMAX
 10
-1.0000000000E+20
 20
-1.0000000000E+20
 30
-1.0000000000E+20
  9
$PLIMMIN
 10
0.0
 20
0.0
  9
$PLIMMAX
 10
420.0
 20
297.0
  9
$UNITMODE
 70
     0
  9
$VISRETAIN
 70
     1
  9
$PLINEGEN
 70
     0
  9
$PSLTSCALE
 70
     1
  9
$TREEDEPTH
 70
  3020
  9
$CMLSTYLE
  2
Standard
  9
$CMLJUST
 70
     0
  9
$CMLSCALE
 40
20.0
  9
$PROXYGRAPHICS
 70
     1
  9
$MEASUREMENT
 70
     1
  9
$CELWEIGHT
370
    -1
  9
$ENDCAPS
280
     0
  9
$JOINSTYLE
280
     0
  9
$LWDISPLAY
290
     1
  9
$INSUNITS
 70
     4
  9
$HYPERLINKBASE
  1

  9
$STYLESHEET
  1

  9
$XEDIT
290
     1
  9
$CEPSNTYPE
380
     0
  9
$PSTYLEMODE
290
     1
  9
$FINGERPRINTGUID
  2
{57a2694b-34a7-47ce-b3aa-4857a805d684}
  9
$VERSIONGUID
  2
{FAEB1C32-E019-11D5-929B-00C0DF256EC4}
  9
$EXTNAMES
290
     1
  9
$PSVPSCALE
 40
0.0
  9
$OLESTARTUP
290
     0
  0
ENDSEC
  0
SECTION
  2
CLASSES
  0
CLASS
  1
ACDBDICTIONARYWDFLT
  2
AcDbDictionaryWithDefault
  3
ObjectDBX Classes
 90
        0
280
     0
281
     0
  0
CLASS
  1
VISUALSTYLE
  2
AcDbVisualStyle
  3
ObjectDBX Classes
 90
     4095
280
     0
281
     0
  0
CLASS
  1
MATERIAL
  2
AcDbMaterial
  3
ObjectDBX Classes
 90
     1153
280
     0
281
     0
  0
CLASS
  1
SCALE
  2
AcDbScale
  3
ObjectDBX Classes
 90
     1153
280
     0
281
     0
  0
CLASS
  1
TABLESTYLE
  2
AcDbTableStyle
  3
ObjectDBX Classes
 90
     4095
280
     0
281
     0
  0
CLASS
  1
MLEADERSTYLE
  2
AcDbMLeaderStyle
  3
ACDB_MLEADERSTYLE_CLASS
 90
     4095
280
     0
281
     0
  0
CLASS
  1
SUN
  2
AcDbSun
  3
SCENEOE
 90
     1153
280
     0
281
     0
  0
CLASS
  1
ACDBPLACEHOLDER
  2
AcDbPlaceHolder
  3
ObjectDBX Classes
 90
        0
280
     0
281
     0
  0
CLASS
  1
LAYOUT
  2
AcDbLayout
  3
ObjectDBX Classes
 90
        0
280
     0
281
     0
  0
ENDSEC
  0
SECTION
  2
TABLES
  0
TABLE
  2
VPORT
  5
8
330
0
100
AcDbSymbolTable
 70
     1
  0
VPORT
  5
29
330
8
100
AcDbSymbolTableRecord
100
AcDbViewportTableRecord
  2
*Active
 70
     0
 10
0.0
 20
0.0
 11
1.0
 21
1.0
 12
139.7
 22
107.95
 13
0.0
 23
0.0
 14
10.0
 24
10.0
 15
10.0
 25
10.0
 16
0.0
 26
0.0
 36
1.0
 17
0.0
 27
0.0
 37
0.0
 40
215.9
 41
1.2941176471
 42
50.0
 43
0.0
 44
0.0
 50
0.0
 51
0.0
 71
     0
 72
  2000
 73
     1
 74
     3
 75
     0
 76
     0
 77
     0
 78
     0
281
     0
 65
     1
110
0.0
120
0.0
130
0.0
111
1.0
121
0.0
131
0.0
112
0.0
122
1.0
132
0.0
 79
     0
146
0.0
  0
ENDTAB
  0
TABLE
  2
LTYPE
  5
5
330
0
100
AcDbSymbolTable
 70
     6
  0
LTYPE
  5
14
330
5
100
AcDbSymbolTableRecord
100
AcDbLinetypeTableRecord
  2
ByBlock
 70
     0
  3

 72
    65
 73
     0
 40
0.0
  0
LTYPE
  5
15
330
5
100
AcDbSymbolTableRecord
100
AcDbLinetypeTableRecord
  2
ByLayer
 70
     0
  3

 72
    65
 73
     0
 40
0.0
  0
LTYPE
  5
16
330
5
100
AcDbSymbolTableRecord
100
AcDbLinetypeTableRecord
  2
Continuous
 70
     0
  3
Solid line
 72
    65
 73
     0
 40
0.0
  0
LTYPE
  5
6E
330
5
100
AcDbSymbolTableRecord
100
AcDbLinetypeTableRecord
  2
HIDDEN
 70
     0
  3
Hidden __ __ __ __ __ __ __ __ __ __ __ __ __ __
 72
    65
 73
     2
 40
1.905
 49
1.27
 74
     0
 49
-0.635
 74
     0
  0
LTYPE
  5
6F
330
5
100
AcDbSymbolTableRecord
100
AcDbLinetypeTableRecord
  2
PHANTOM
 70
     0
  3
Phantom ______  __  __  ______  __  __  ______
 72
    65
 73
     6
 40
12.7
 49
6.35
 74
     0
 49
-1.27
 74
     0
 49
1.27
 74
     0
 49
-1.27
 74
     0
 49
1.27
 74
     0
 49
-1.27
 74
     0
  0
LTYPE
  5
70
330
5
100
AcDbSymbolTableRecord
100
AcDbLinetypeTableRecord
  2
CENTER
 70
     0
  3
Center ____ _ ____ _ ____ _ ____ _ ____ _ ____
 72
    65
 73
     4
 40
10.16
 49
6.35
 74
     0
 49
-1.27
 74
     0
 49
1.27
 74
     0
 49
-1.27
 74
     0
  0
LTYPE
  5
71
330
5
100
AcDbSymbolTableRecord
100
AcDbLinetypeTableRecord
  2
CENTERX2
 70
     0
  3
Center (2x) ________  __  ________  __  _____
 72
    65
 73
     4
 40
20.32
 49
12.7
 74
     0
 49
-2.54
 74
     0
 49
2.54
 74
     0
 49
-2.54
 74
     0
  0
LTYPE
  5
72
330
5
100
AcDbSymbolTableRecord
100
AcDbLinetypeTableRecord
  2
DOT2
 70
     0
  3
Dot (.5x) ........................................
 72
    65
 73
     2
 40
0.635
 49
0.0
 74
     0
 49
-0.635
 74
     0
  0
ENDTAB
  0
TABLE
  2
LAYER
  5
2
330
0
100
AcDbSymbolTable
 70
    17
  0
LAYER
  5
10
330
2
100
AcDbSymbolTableRecord
100
AcDbLayerTableRecord
  2
0
 70
     0
 62
     7
  6
Continuous
370
    -3
390
F
  0
LAYER
  5
73
330
2
100
AcDbSymbolTableRecord
100
AcDbLayerTableRecord
  2
FORMAT
 70
     0
 62
     7
  6
Continuous
370
    -3
390
F
  0
LAYER
  5
74
330
2
100
AcDbSymbolTableRecord
100
AcDbLayerTableRecord
  2
YARDIMCI_GEOMETRI
 70
     0
 62
    -6
  6
Continuous
290
     0
370
    -3
390
F
  0
LAYER
  5
75
330
2
100
AcDbSymbolTableRecord
100
AcDbLayerTableRecord
  2
SAYFA_CERCEVESI
 70
     0
 62
     7
  6
Continuous
370
    25
390
F
  0
LAYER
  5
76
330
2
100
AcDbSymbolTableRecord
100
AcDbLayerTableRecord
  2
ANTET
 70
     0
 62
     7
  6
Continuous
370
    -3
390
F
  0
LAYER
  5
77
330
2
100
AcDbSymbolTableRecord
100
AcDbLayerTableRecord
  2
OLCU
 70
     0
 62
   150
  6
Continuous
370
    -3
390
F
  0
LAYER
  5
78
330
2
100
AcDbSymbolTableRecord
100
AcDbLayerTableRecord
  2
METIN
 70
     0
 62
    96
  6
Continuous
370
    -3
390
F
  0
LAYER
  5
79
330
2
100
AcDbSymbolTableRecord
100
AcDbLayerTableRecord
  2
BALON
 70
     0
 62
     5
  6
Continuous
370
    -3
390
F
  0
LAYER
  5
7A
330
2
100
AcDbSymbolTableRecord
100
AcDbLayerTableRecord
  2
VURGU
 70
     0
 62
     7
  6
Continuous
370
    -3
390
F
  0
LAYER
  5
7B
330
2
100
AcDbSymbolTableRecord
100
AcDbLayerTableRecord
  2
SILIK
 70
     0
 62
     7
  6
Continuous
370
    -3
390
F
  0
LAYER
  5
7C
330
2
100
AcDbSymbolTableRecord
100
AcDbLayerTableRecord
  2
MODEL
 70
     0
 62
     7
  6
Continuous
370
    -3
390
F
  0
LAYER
  5
7D
330
2
100
AcDbSymbolTableRecord
100
AcDbLayerTableRecord
  2
DETAYLANDıRMA
 70
     0
 62
   190
  6
Continuous
370
    -3
390
F
  0
LAYER
  5
7E
330
2
100
AcDbSymbolTableRecord
100
AcDbLayerTableRecord
  2
TOLERANS
 70
     0
 62
   230
  6
Continuous
370
    -3
390
F
  0
LAYER
  5
7F
330
2
100
AcDbSymbolTableRecord
100
AcDbLayerTableRecord
  2
MERKEZ_CIZGILERI
 70
     0
 62
    30
  6
Continuous
370
    -3
390
F
  0
LAYER
  5
80
330
2
100
AcDbSymbolTableRecord
100
AcDbLayerTableRecord
  2
KESIT-DETAY_CIZGILERI
 70
     0
 62
     7
  6
Continuous
370
    -3
390
F
  0
LAYER
  5
81
330
2
100
AcDbSymbolTableRecord
100
AcDbLayerTableRecord
  2
\U+041E\U+0421\U+0415\U+0412\U+042B\U+0415
 70
     0
 62
     7
  6
Continuous
370
    -3
390
F
  0
LAYER
  5
82
330
2
100
AcDbSymbolTableRecord
100
AcDbLayerTableRecord
  2
\U+0412\U+041E\U+0414\U+042F\U+041D\U+042B\U+0415_\U+0417\U+041D\U+0410\U+041A\U+0418
 70
     0
 62
    11
  6
Continuous
370
    -3
390
F
  0
ENDTAB
  0
TABLE
  2
STYLE
  5
3
330
0
100
AcDbSymbolTable
 70
     1
  0
STYLE
  5
11
330
3
100
AcDbSymbolTableRecord
100
AcDbTextStyleTableRecord
  2
Standard
 70
     0
 40
0.0
 41
1.0
 50
0.0
 71
     0
 42
3.5
  3
txt
  4

  0
ENDTAB
  0
TABLE
  2
VIEW
  5
6
330
0
100
AcDbSymbolTable
 70
     0
  0
ENDTAB
  0
TABLE
  2
UCS
  5
7
330
0
100
AcDbSymbolTable
 70
     0
  0
ENDTAB
  0
TABLE
  2
APPID
  5
9
330
0
100
AcDbSymbolTable
 70
     1
  0
APPID
  5
12
330
9
100
AcDbSymbolTableRecord
100
AcDbRegAppTableRecord
  2
ACAD
 70
     0
  0
ENDTAB
  0
TABLE
  2
DIMSTYLE
  5
A
330
0
100
AcDbSymbolTable
 70
     1
100
AcDbDimStyleTable
  0
DIMSTYLE
105
27
330
A
100
AcDbSymbolTableRecord
100
AcDbDimStyleTableRecord
  2
ISO-25
 70
     0
 41
2.5
 42
0.625
 43
3.75
 44
1.25
 73
     0
 74
     0
 77
     1
 78
     8
140
2.5
141
2.5
143
0.0393700787
147
0.625
171
     3
172
     1
178
     0
271
     2
272
     2
274
     3
278
    44
283
     0
284
     8
340
11
  0
ENDTAB
  0
TABLE
  2
BLOCK_RECORD
  5
1
330
0
100
AcDbSymbolTable
 70
     3
  0
BLOCK_RECORD
  5
1F
330
1
100
AcDbSymbolTableRecord
100
AcDbBlockTableRecord
  2
*Model_Space
340
22
  0
BLOCK_RECORD
  5
1B
330
1
100
AcDbSymbolTableRecord
100
AcDbBlockTableRecord
  2
*Paper_Space
340
1E
  0
BLOCK_RECORD
  5
23
330
1
100
AcDbSymbolTableRecord
100
AcDbBlockTableRecord
  2
*Paper_Space0
340
26
  0
BLOCK_RECORD
  5
AF
330
1
100
AcDbSymbolTableRecord
100
AcDbBlockTableRecord
  2
SW_CENTERMARKSYMBOL_0
340
0
102
{BLKREFS
331
BA
102
}
  0
BLOCK_RECORD
  5
C3
330
1
100
AcDbSymbolTableRecord
100
AcDbBlockTableRecord
  2
SW_CENTERMARKSYMBOL_1
340
0
102
{BLKREFS
331
CE
102
}
  0
ENDTAB
  0
ENDSEC
  0
SECTION
  2
BLOCKS
  0
BLOCK
  5
20
330
1F
100
AcDbEntity
  8
0
100
AcDbBlockBegin
  2
*Model_Space
 70
     0
 10
0.0
 20
0.0
 30
0.0
  3
*Model_Space
  1

  0
ENDBLK
  5
21
330
1F
100
AcDbEntity
  8
0
100
AcDbBlockEnd
  0
BLOCK
  5
1C
330
1B
100
AcDbEntity
 67
     1
  8
0
100
AcDbBlockBegin
  2
*Paper_Space
 70
     0
 10
0.0
 20
0.0
 30
0.0
  3
*Paper_Space
  1

  0
ENDBLK
  5
1D
330
1B
100
AcDbEntity
 67
     1
  8
0
100
AcDbBlockEnd
  0
BLOCK
  5
24
330
23
100
AcDbEntity
  8
0
100
AcDbBlockBegin
  2
*Paper_Space0
 70
     0
 10
0.0
 20
0.0
 30
0.0
  3
*Paper_Space0
  1

  0
ENDBLK
  5
25
330
23
100
AcDbEntity
  8
0
100
AcDbBlockEnd
  0
BLOCK
  5
B0
330
AF
100
AcDbEntity
  8
0
100
AcDbBlockBegin
  2
SW_CENTERMARKSYMBOL_0
 70
     0
 10
0.0
 20
0.0
 30
0.0
  3
SW_CENTERMARKSYMBOL_0
  1

  0
LINE
  5
B2
330
AF
100
AcDbEntity
  8
FORMAT
 62
     0
100
AcDbLine
 10
0.0
 20
0.0
 30
0.0
 11
0.0
 21
2.5
 31
0.0
  0
LINE
  5
B3
330
AF
100
AcDbEntity
  8
FORMAT
 62
     0
100
AcDbLine
 10
0.0
 20
0.0
 30
0.0
 11
-2.5
 21
0.0
 31
0.0
  0
LINE
  5
B4
330
AF
100
AcDbEntity
  8
FORMAT
 62
     0
100
AcDbLine
 10
0.0
 20
0.0
 30
0.0
 11
0.0
 21
-2.5
 31
0.0
  0
LINE
  5
B5
330
AF
100
AcDbEntity
  8
FORMAT
 62
     0
100
AcDbLine
 10
0.0
 20
0.0
 30
0.0
 11
2.5
 21
0.0
 31
0.0
  0
LINE
  5
B6
330
AF
100
AcDbEntity
  8
FORMAT
 62
     0
100
AcDbLine
 10
0.0
 20
5.0
 30
0.0
 11
0.0
 21
34.0
 31
0.0
  0
LINE
  5
B7
330
AF
100
AcDbEntity
  8
FORMAT
 62
     0
100
AcDbLine
 10
-5.0
 20
0.0
 30
0.0
 11
-34.0
 21
0.0
 31
0.0
  0
LINE
  5
B8
330
AF
100
AcDbEntity
  8
FORMAT
 62
     0
100
AcDbLine
 10
0.0
 20
-5.0
 30
0.0
 11
0.0
 21
-34.0
 31
0.0
  0
LINE
  5
B9
330
AF
100
AcDbEntity
  8
FORMAT
 62
     0
100
AcDbLine
 10
5.0
 20
0.0
 30
0.0
 11
34.0
 21
0.0
 31
0.0
  0
ENDBLK
  5
B1
330
AF
100
AcDbEntity
  8
0
100
AcDbBlockEnd
  0
BLOCK
  5
C4
330
C3
100
AcDbEntity
  8
0
100
AcDbBlockBegin
  2
SW_CENTERMARKSYMBOL_1
 70
     0
 10
0.0
 20
0.0
 30
0.0
  3
SW_CENTERMARKSYMBOL_1
  1

  0
LINE
  5
C6
330
C3
100
AcDbEntity
  8
FORMAT
 62
     0
100
AcDbLine
 10
0.0
 20
0.0
 30
0.0
 11
0.0
 21
2.5
 31
0.0
  0
LINE
  5
C7
330
C3
100
AcDbEntity
  8
FORMAT
 62
     0
100
AcDbLine
 10
0.0
 20
0.0
 30
0.0
 11
-2.5
 21
0.0
 31
0.0
  0
LINE
  5
C8
330
C3
100
AcDbEntity
  8
FORMAT
 62
     0
100
AcDbLine
 10
0.0
 20
0.0
 30
0.0
 11
0.0
 21
-2.5
 31
0.0
  0
LINE
  5
C9
330
C3
100
AcDbEntity
  8
FORMAT
 62
     0
100
AcDbLine
 10
0.0
 20
0.0
 30
0.0
 11
2.5
 21
0.0
 31
0.0
  0
LINE
  5
CA
330
C3
100
AcDbEntity
  8
FORMAT
 62
     0
100
AcDbLine
 10
0.0
 20
5.0
 30
0.0
 11
0.0
 21
34.0
 31
0.0
  0
LINE
  5
CB
330
C3
100
AcDbEntity
  8
FORMAT
 62
     0
100
AcDbLine
 10
-5.0
 20
0.0
 30
0.0
 11
-34.0
 21
0.0
 31
0.0
  0
LINE
  5
CC
330
C3
100
AcDbEntity
  8
FORMAT
 62
     0
100
AcDbLine
 10
0.0
 20
-5.0
 30
0.0
 11
0.0
 21
-34.0
 31
0.0
  0
LINE
  5
CD
330
C3
100
AcDbEntity
  8
FORMAT
 62
     0
100
AcDbLine
 10
5.0
 20
0.0
 30
0.0
 11
34.0
 21
0.0
 31
0.0
  0
ENDBLK
  5
C5
330
C3
100
AcDbEntity
  8
0
100
AcDbBlockEnd
  0
ENDSEC
  0
SECTION
  2
ENTITIES
  0
LINE
  5
83
330
1F
100
AcDbEntity
  8
0
  6
Continuous
 62
     7
370
    25
100
AcDbLine
 10
96.3772315449
 20
133.0422678015
 30
0.0
 11
96.3772315449
 21
53.089998009
 31
0.0
  0
LINE
  5
84
330
1F
100
AcDbEntity
  8
0
  6
Continuous
 62
     7
370
    25
100
AcDbLine
 10
159.3772325582
 20
53.089998009
 30
0.0
 11
159.3772325582
 21
133.0422678015
 31
0.0
  0
ARC
  5
85
330
1F
100
AcDbEntity
  8
0
  6
Continuous
 62
     7
370
    25
100
AcDbCircle
 10
159.3772320515
 20
133.0422707942
 30
0.0
 40
63.00000000000003
100
AcDbArc
 50
135.0
 51
180.0
  0
LINE
  5
86
330
1F
100
AcDbEntity
  8
0
  6
Continuous
 62
     7
370
    25
100
AcDbLine
 10
172.6033691234
 20
235.3638627551
 30
0.0
 11
114.8295052266
 21
177.5899969957
 31
0.0
  0
LINE
  5
87
330
1F
100
AcDbEntity
  8
0
  6
Continuous
 62
     7
370
    25
100
AcDbLine
 10
159.3772325582
 20
133.0422678015
 30
0.0
 11
217.1510945922
 21
190.8161410115
 31
0.0
  0
LINE
  5
88
330
1F
100
AcDbEntity
  8
0
  6
Continuous
 62
     7
370
    25
100
AcDbLine
 10
127.8772320515
 20
53.089998009
 30
0.0
 11
159.3772325582
 21
53.089998009
 31
0.0
  0
LINE
  5
89
330
1F
100
AcDbEntity
  8
0
  6
Continuous
 62
     7
370
    25
100
AcDbLine
 10
96.3772315449
 20
53.089998009
 30
0.0
 11
127.8772320515
 21
53.089998009
 31
0.0
  0
LWPOLYLINE
  5
8A
330
1F
100
AcDbEntity
  8
0
  6
Continuous
 62
     7
370
    25
100
AcDbPolyline
 90
       24
 70
   128
 43
0.0
 10
194.8772337204
 20
213.0899944327
 10
196.4484047061
 20
211.5188159964
 10
198.0117525822
 20
209.9554755709
 10
199.5594840414
 20
208.4077366612
 10
201.0838877326
 20
206.8833329699
 10
202.5773715145
 20
205.3898491881
 10
204.0324997074
 20
203.9347358963
 10
205.4420079953
 20
202.5252201579
 10
206.7988853818
 20
201.1683502219
 10
208.0963667399
 20
199.8708614132
 10
209.3279998666
 20
198.6392357371
 10
210.4876305825
 20
197.4795975707
 10
211.5694921381
 20
196.3977285645
 10
212.5681977636
 20
195.399022939
 10
213.4787704712
 20
194.4884576819
 10
214.2966654068
 20
193.6705627463
 10
215.0178145534
 20
192.9494210503
 10
215.6386267311
 20
192.3286088726
 10
216.1560024983
 20
191.8112256548
 10
216.5673714048
 20
191.3998492978
 10
216.8706845409
 20
191.0965510628
 10
217.0644219882
 20
190.902806165
 10
217.1476300723
 20
190.8195980809
 10
217.1510945922
 20
190.8161410115
  0
LWPOLYLINE
  5
8B
330
1F
100
AcDbEntity
  8
0
  6
Continuous
 62
     7
370
    25
100
AcDbPolyline
 90
       24
 70
   128
 43
0.0
 10
172.6033691234
 20
235.3638627551
 10
172.6068373686
 20
235.3603907845
 10
172.6900417274
 20
235.2771827004
 10
172.8837791747
 20
235.0834527037
 10
173.1870885855
 20
234.7801395676
 10
173.598457492
 20
234.3687781117
 10
174.1158369845
 20
233.8513948939
 10
174.7366491622
 20
233.2305827162
 10
175.4577983088
 20
232.5094261191
 10
176.2756969697
 20
231.6915311835
 10
177.1862622267
 20
230.7809659264
 10
178.1849678523
 20
229.7822603009
 10
179.2668331331
 20
228.7003912947
 10
180.4264675743
 20
227.5407680294
 10
181.6580932504
 20
226.3091423533
 10
182.9555783338
 20
225.0116535447
 10
184.3124557203
 20
223.6547687075
 10
185.7219677335
 20
222.2452678702
 10
187.1770884758
 20
220.7901396773
 10
188.6705722577
 20
219.2966558955
 10
190.194975949
 20
217.7722522042
 10
191.7427074081
 20
216.2245281956
 10
193.3060552842
 20
214.661172869
 10
194.8772337204
 20
213.0899944327
  0
LINE
  5
8C
330
1F
100
AcDbEntity
  8
0
  6
Continuous
 62
     1
370
    25
100
AcDbLine
 10
96.3772315449
 20
133.0422678015
 30
0.0
 11
159.3772325582
 21
133.0422678015
 31
0.0
  0
LWPOLYLINE
  5
8D
330
1F
100
AcDbEntity
  8
0
  6
Continuous
 62
     1
370
    25
100
AcDbPolyline
 90
       46
 70
   128
 43
0.0
 10
114.8295052266
 20
177.5899969957
 10
114.8433800704
 20
177.5761240146
 10
114.9542782372
 20
177.4652221224
 10
115.1755222967
 20
177.2439771316
 10
115.5060095629
 20
176.9134917281
 10
115.9440934575
 20
176.4754124901
 10
116.4875918916
 20
175.9319075367
 10
117.1337975106
 20
175.2857037804
 10
117.879489801
 20
174.5400124214
 10
118.7209555796
 20
173.6985438487
 10
119.654001101
 20
172.76550019
 10
120.6739781341
 20
171.7455231569
 10
121.7758058487
 20
170.6436940453
 10
122.9539945638
 20
169.4655113838
 10
124.2026750846
 20
168.2168313286
 10
125.5156259435
 20
166.9038751147
 10
126.8863063455
 20
165.5331992528
 10
128.3078877463
 20
164.1116135738
 10
129.773287816
 20
162.6462184808
 10
131.2752057715
 20
161.1443006418
 10
132.8061594545
 20
159.6133404396
 10
134.3585219151
 20
158.0609821699
 10
135.9245585194
 20
156.4949446342
 10
137.4964680439
 20
154.923036041
 10
139.0664199284
 20
153.3530869505
 10
140.6265910632
 20
151.7929130218
 10
142.1692095614
 20
150.2502926609
 10
143.6865910804
 20
148.7329148672
 10
145.1711751437
 20
147.2483270786
 10
146.6155651874
 20
145.8039351723
 10
148.0125658131
 20
144.4069364092
 10
149.3552181787
 20
143.064282181
 10
150.6368316627
 20
141.7826705596
 10
151.8510229802
 20
140.5684792421
 10
152.9917422599
 20
139.4277580998
 10
154.0533065713
 20
138.3661993763
 10
155.0304260022
 20
137.3890780828
 10
155.9182353235
 20
136.5012668989
 10
156.7123088902
 20
135.7071914694
 10
157.4086904443
 20
135.0108080528
 10
158.0039136029
 20
134.4155886195
 10
158.4950111723
 20
133.92449105
 10
158.8795356369
 20
133.5399665854
 10
159.1555740601
 20
133.2639300249
 10
159.3217480844
 20
133.0977522752
 10
159.3772325582
 20
133.0422678015
  0
LINE
  5
8E
330
1F
100
AcDbEntity
  8
0
  6
Continuous
 62
     7
370
    25
100
AcDbLine
 10
-41.9823686925
 20
213.0899944327
 30
0.0
 11
-41.9823686925
 21
155.3161361239
 31
0.0
  0
LINE
  5
8F
330
1F
100
AcDbEntity
  8
0
  6
Continuous
 62
     7
370
    25
100
AcDbLine
 10
21.0176323208
 20
155.3161361239
 30
0.0
 11
21.0176323208
 21
213.0899944327
 31
0.0
  0
LINE
  5
90
330
1F
100
AcDbEntity
  8
0
  6
Continuous
 62
     7
370
    25
100
AcDbLine
 10
-41.9823686925
 20
155.3161361239
 30
0.0
 11
-41.9823686925
 21
133.0422678015
 31
0.0
  0
LINE
  5
91
330
1F
100
AcDbEntity
  8
0
  6
Continuous
 62
     7
370
    25
100
AcDbLine
 10
21.0176323208
 20
133.0422678015
 30
0.0
 11
21.0176323208
 21
155.3161361239
 31
0.0
  0
LINE
  5
92
330
1F
100
AcDbEntity
  8
0
  6
Continuous
 62
     7
370
    25
100
AcDbLine
 10
-41.9823686925
 20
133.0422678015
 30
0.0
 11
-41.9823686925
 21
53.089998009
 31
0.0
  0
LINE
  5
93
330
1F
100
AcDbEntity
  8
0
  6
Continuous
 62
     7
370
    25
100
AcDbLine
 10
21.0176323208
 20
53.089998009
 30
0.0
 11
21.0176323208
 21
133.0422678015
 31
0.0
  0
LWPOLYLINE
  5
94
330
1F
100
AcDbEntity
  8
0
  6
Continuous
 62
     7
370
    25
100
AcDbPolyline
 90
       90
 70
   128
 43
0.0
 10
-41.9823686925
 20
213.0899944327
 10
-41.9039029029
 20
211.5188159964
 10
-41.6688966898
 20
209.9554755709
 10
-41.2785197941
 20
208.4077366612
 10
-40.7347186801
 20
206.8833329699
 10
-40.0402034966
 20
205.3898491881
 10
-39.1984313128
 20
203.9347358963
 10
-38.2135968057
 20
202.5252201579
 10
-37.0906061826
 20
201.1683502219
 10
-35.8350566921
 20
199.8708614132
 10
-34.4531993714
 20
198.6392357371
 10
-32.9519222823
 20
197.4795975707
 10
-31.3387020824
 20
196.3977285645
 10
-29.6215760854
 20
195.399022939
 10
-27.8091012833
 20
194.4884576819
 10
-25.9103040544
 20
193.6705627463
 10
-23.9346457047
 20
192.9494210503
 10
-21.8919693825
 20
192.3286088726
 10
-19.7924507183
 20
191.8112256548
 10
-17.6465498616
 20
191.3998492978
 10
-15.4649574642
 20
191.0965510628
 10
-13.2585415949
 20
190.902806165
 10
-11.0382953526
 20
190.8195980809
 10
-8.8152793569
 20
190.847344043
 10
-6.6005688959
 20
190.985909941
 10
-4.4051973482
 20
191.234580519
 10
-2.2401019332
 20
191.592148783
 10
-0.1160689962
 20
192.0568116925
 10
1.9563202414
 20
192.6262595675
 10
3.9667392748
 20
193.2976611874
 10
5.9051745238
 20
194.0676637909
 10
7.761967242
 20
194.9324377797
 10
9.5278684648
 20
195.8876618168
 10
11.1940790566
 20
196.9285973332
 10
12.7522990706
 20
198.0500438235
 10
14.1947650018
 20
199.2464282534
 10
15.5142889025
 20
200.5117603562
 10
16.7043012234
 20
201.8397816441
 10
17.7588694396
 20
203.2238312981
 10
18.6727427545
 20
204.6570398829
 10
19.441365138
 20
206.1322697422
 10
20.0609107169
 20
207.6421448014
 10
20.528289363
 20
209.1791697762
 10
20.8411764952
 20
210.7356854699
 10
20.9980074915
 20
212.3039134762
 10
20.9980074915
 20
213.8760753891
 10
20.8411764952
 20
215.4443182967
 10
20.528289363
 20
217.0008190892
 10
20.0609107169
 20
218.537844064
 10
19.441365138
 20
220.0477340243
 10
18.6727427545
 20
221.5229489825
 10
17.7588694396
 20
222.9561575673
 10
16.7043012234
 20
224.3402221224
 10
15.5142889025
 20
225.6682285092
 10
14.1947650018
 20
226.9335755131
 10
12.7522990706
 20
228.1299450419
 10
11.1940790566
 20
229.2513915322
 10
9.5278684648
 20
230.2923270485
 10
7.761967242
 20
231.2475659869
 10
5.9051745238
 20
232.1123399756
 10
3.9667392748
 20
232.8823425791
 10
1.9563202414
 20
233.5537292979
 10
-0.1160689962
 20
234.1231771729
 10
-2.2401019332
 20
234.5878400824
 10
-4.4051973482
 20
234.9454083464
 10
-6.6005688959
 20
235.1940938256
 10
-8.8152793569
 20
235.3326448224
 10
-11.0382953526
 20
235.3603907845
 10
-13.2585415949
 20
235.2771827004
 10
-15.4649574642
 20
235.0834527037
 10
-17.6465498616
 20
234.7801395676
 10
-19.7924507183
 20
234.3687781117
 10
-21.8919693825
 20
233.8513948939
 10
-23.9346457047
 20
233.2305827162
 10
-25.9103040544
 20
232.5094261191
 10
-27.8091012833
 20
231.6915311835
 10
-29.6215760854
 20
230.7809659264
 10
-31.3387020824
 20
229.7822603009
 10
-32.9519222823
 20
228.7003912947
 10
-34.4531993714
 20
227.5407680294
 10
-35.8350566921
 20
226.3091423533
 10
-37.0906061826
 20
225.0116535447
 10
-38.2135968057
 20
223.6547687075
 10
-39.1984313128
 20
222.2452678702
 10
-40.0402034966
 20
220.7901396773
 10
-40.7347186801
 20
219.2966558955
 10
-41.2785197941
 20
217.7722522042
 10
-41.6688966898
 20
216.2245281956
 10
-41.9039029029
 20
214.661172869
 10
-41.9823686925
 20
213.0899944327
  0
LWPOLYLINE
  5
95
330
1F
100
AcDbEntity
  8
0
  6
Continuous
 62
     7
370
    25
100
AcDbPolyline
 90
       81
 70
   128
 43
0.0
 10
-36.1823673693
 20
213.0899944327
 10
-36.1031434831
 20
214.5158120415
 10
-35.8659579751
 20
215.9328230641
 10
-35.4722748843
 20
217.3323103211
 10
-34.9245212374
 20
218.7056609414
 10
-34.2260721472
 20
220.0443663619
 10
-33.3812359122
 20
221.3402011416
 10
-32.3952204881
 20
222.5851782582
 10
-31.2741055486
 20
223.7716087124
 10
-30.0248015073
 20
224.8921909354
 10
-28.6550122646
 20
225.939995887
 10
-27.1731830535
 20
226.9085862658
 10
-25.5884492171
 20
227.7919718049
 10
-23.9105812607
 20
228.5847284815
 10
-22.1499243153
 20
229.2819389126
 10
-20.3173320142
 20
229.8793264649
 10
-18.4241050256
 20
230.3732105515
 10
-16.4819142183
 20
230.7605364344
 10
-14.5027340722
 20
231.0389050267
 10
-12.4987670087
 20
231.2066175959
 10
-10.4823681859
 20
231.262645962
 10
-8.465969363
 20
231.2066175959
 10
-6.4620022995
 20
231.0389050267
 10
-4.4828221535
 20
230.7605364344
 10
-2.5406313461
 20
230.3732105515
 10
-0.6474043575
 20
229.8793264649
 10
1.1851879435
 20
229.2819389126
 10
2.9458448889
 20
228.5847284815
 10
4.6237128454
 20
227.7919718049
 10
6.2084466818
 20
226.9085862658
 10
7.6902758929
 20
225.939995887
 10
9.0600651356
 20
224.8921909354
 10
10.3093691769
 20
223.7716087124
 10
11.4304841163
 20
222.5851782582
 10
12.4164995405
 20
221.3402011416
 10
13.2613357755
 20
220.0443663619
 10
13.9597848656
 20
218.7056609414
 10
14.5075385126
 20
217.3323103211
 10
14.9012216034
 20
215.9328230641
 10
15.1384071114
 20
214.5158120415
 10
15.2176309976
 20
213.0899944327
 10
15.1384071114
 20
211.664191725
 10
14.9012216034
 20
210.2471658013
 10
14.5075385126
 20
208.8476785443
 10
13.9597848656
 20
207.4743428252
 10
13.2613357755
 20
206.1356225035
 10
12.4164995405
 20
204.8397877238
 10
11.4304841163
 20
203.5948106072
 10
10.3093691769
 20
202.4083801529
 10
9.0600651356
 20
201.2878128312
 10
7.6902758929
 20
200.2399929783
 10
6.2084466818
 20
199.2714175007
 10
4.6237128454
 20
198.3880170605
 10
2.9458448889
 20
197.595275285
 10
1.1851879435
 20
196.8980499527
 10
-0.6474043575
 20
196.3006624005
 10
-2.5406313461
 20
195.806793215
 10
-4.4828221535
 20
195.4194673321
 10
-6.4620022995
 20
195.1410838387
 10
-8.465969363
 20
194.9733712695
 10
-10.4823681859
 20
194.9173578045
 10
-12.4987670087
 20
194.9733712695
 10
-14.5027340722
 20
195.1410838387
 10
-16.4819142183
 20
195.4194673321
 10
-18.4241050256
 20
195.806793215
 10
-20.3173320142
 20
196.3006624005
 10
-22.1499243153
 20
196.8980499527
 10
-23.9105812607
 20
197.595275285
 10
-25.5884492171
 20
198.3880170605
 10
-27.1731830535
 20
199.2714175007
 10
-28.6550122646
 20
200.2399929783
 10
-30.0248015073
 20
201.2878128312
 10
-31.2741055486
 20
202.4083801529
 10
-32.3952204881
 20
203.5948106072
 10
-33.3812359122
 20
204.8397877238
 10
-34.2260721472
 20
206.1356225035
 10
-34.9245212374
 20
207.4743428252
 10
-35.4722748843
 20
208.8476785443
 10
-35.8659579751
 20
210.2471658013
 10
-36.1031434831
 20
211.664191725
 10
-36.1823673693
 20
213.0899944327
  0
LINE
  5
96
330
1F
100
AcDbEntity
  8
0
  6
Continuous
 62
     7
370
    25
100
AcDbLine
 10
-41.9823686925
 20
53.089998009
 30
0.0
 11
21.0176323208
 21
53.089998009
 31
0.0
  0
LWPOLYLINE
  5
97
330
1F
100
AcDbEntity
  8
0
  6
Continuous
 62
     1
370
    25
100
AcDbPolyline
 90
       24
 70
   128
 43
0.0
 10
-10.4823681859
 20
133.0422678015
 10
-8.2603910805
 20
133.0977522752
 10
-6.0494836753
 20
133.2639300249
 10
-3.8606604894
 20
133.5399665854
 10
-1.7048261461
 20
133.92449105
 10
0.4072784113
 20
134.4155886195
 10
2.4651315662
 20
135.0108080528
 10
4.4584803882
 20
135.7071914694
 10
6.3773960474
 20
136.5012668989
 10
8.2123157236
 20
137.3890780828
 10
9.954099417
 20
138.3661993763
 10
11.5940709266
 20
139.4277580998
 10
13.1240569654
 20
140.5684792421
 10
14.5364393147
 20
141.7826705596
 10
15.824177176
 20
143.064282181
 10
16.9808574619
 20
144.4069364092
 10
18.0007190111
 20
145.8039351723
 10
18.8786768022
 20
147.2483270786
 10
19.6103610697
 20
148.7329148672
 10
20.1921247544
 20
150.2502926609
 10
20.6210695806
 20
151.7929130218
 10
20.8950590941
 20
153.3530869505
 10
21.0127261135
 20
154.923036041
 10
21.0176323208
 20
155.3161361239
  0
LWPOLYLINE
  5
98
330
1F
100
AcDbEntity
  8
0
  6
Continuous
 62
     1
370
    25
100
AcDbPolyline
 90
       24
 70
   128
 43
0.0
 10
-41.9823686925
 20
155.3161361239
 10
-41.9774624852
 20
154.923036041
 10
-41.8597954658
 20
153.3530869505
 10
-41.5858059523
 20
151.7929130218
 10
-41.1568611262
 20
150.2502926609
 10
-40.5750974414
 20
148.7329148672
 10
-39.8434131739
 20
147.2483270786
 10
-38.9654553828
 20
145.8039351723
 10
-37.9455938337
 20
144.4069364092
 10
-36.7889135477
 20
143.064282181
 10
-35.5011756865
 20
141.7826705596
 10
-34.0887933371
 20
140.5684792421
 10
-32.5588072983
 20
139.4277580998
 10
-30.9188357887
 20
138.3661993763
 10
-29.1770520953
 20
137.3890780828
 10
-27.3421324191
 20
136.5012668989
 10
-25.4232167599
 20
135.7071914694
 10
-23.4298679379
 20
135.0108080528
 10
-21.3720147831
 20
134.4155886195
 10
-19.2599102256
 20
133.92449105
 10
-17.1040758823
 20
133.5399665854
 10
-14.9152526965
 20
133.2639300249
 10
-12.7043452912
 20
133.0977522752
 10
-10.4823681859
 20
133.0422678015
  0
LINE
  5
99
330
1F
100
AcDbEntity
  8
0
  6
Continuous
 62
     1
370
    25
100
AcDbLine
 10
-10.4823681859
 20
133.0422678015
 30
0.0
 11
21.0176323208
 21
133.0422678015
 31
0.0
  0
LINE
  5
9A
330
1F
100
AcDbEntity
  8
0
  6
Continuous
 62
     1
370
    25
100
AcDbLine
 10
-41.9823686925
 20
133.0422678015
 30
0.0
 11
-10.4823681859
 21
133.0422678015
 31
0.0
  0
LINE
  5
9B
330
1F
100
AcDbEntity
  8
0
  6
Continuous
 62
     7
370
    25
100
AcDbLine
 10
262.2590259394
 20
133.0422678015
 30
0.0
 11
262.2590259394
 21
53.089998009
 31
0.0
  0
LINE
  5
9C
330
1F
100
AcDbEntity
  8
0
  6
Continuous
 62
     7
370
    25
100
AcDbLine
 10
325.2590269527
 20
53.089998009
 30
0.0
 11
325.2590269527
 21
133.0422678015
 31
0.0
  0
LINE
  5
9D
330
1F
100
AcDbEntity
  8
0
  6
Continuous
 62
     7
370
    25
100
AcDbLine
 10
325.2590269527
 20
133.0422678015
 30
0.0
 11
325.2590269527
 21
155.3161361239
 31
0.0
  0
LINE
  5
9E
330
1F
100
AcDbEntity
  8
0
  6
Continuous
 62
     7
370
    25
100
AcDbLine
 10
262.2590259394
 20
155.3161361239
 30
0.0
 11
262.2590259394
 21
133.0422678015
 31
0.0
  0
LINE
  5
9F
330
1F
100
AcDbEntity
  8
0
  6
Continuous
 62
     7
370
    25
100
AcDbLine
 10
262.2590259394
 20
213.0899944327
 30
0.0
 11
262.2590259394
 21
155.3161361239
 31
0.0
  0
LINE
  5
A0
330
1F
100
AcDbEntity
  8
0
  6
Continuous
 62
     7
370
    25
100
AcDbLine
 10
325.2590269527
 20
155.3161361239
 30
0.0
 11
325.2590269527
 21
213.0899944327
 31
0.0
  0
LINE
  5
A1
330
1F
100
AcDbEntity
  8
0
  6
Continuous
 62
     7
370
    25
100
AcDbLine
 10
262.2590259394
 20
53.089998009
 30
0.0
 11
325.2590269527
 21
53.089998009
 31
0.0
  0
LWPOLYLINE
  5
A2
330
1F
100
AcDbEntity
  8
0
  6
Continuous
 62
     7
370
    25
100
AcDbPolyline
 90
       46
 70
   128
 43
0.0
 10
262.2590259394
 20
213.0899944327
 10
262.2786507687
 20
213.8760753891
 10
262.435481765
 20
215.4443182967
 10
262.7483688971
 20
217.0008190892
 10
263.2157475433
 20
218.537844064
 10
263.8352931222
 20
220.0477340243
 10
264.6039155057
 20
221.5229489825
 10
265.5177888206
 20
222.9561575673
 10
266.5723570368
 20
224.3402221224
 10
267.7623693576
 20
225.6682285092
 10
269.0818932584
 20
226.9335755131
 10
270.5243591896
 20
228.1299450419
 10
272.0825792035
 20
229.2513915322
 10
273.7487897953
 20
230.2923270485
 10
275.5146910182
 20
231.2475659869
 10
277.3714837363
 20
232.1123399756
 10
279.3099189854
 20
232.8823425791
 10
281.3203380188
 20
233.5537292979
 10
283.3927272564
 20
234.1231771729
 10
285.5167601934
 20
234.5878400824
 10
287.6818556084
 20
234.9454083464
 10
289.8772271561
 20
235.1940938256
 10
292.0919376171
 20
235.3326448224
 10
294.3149536128
 20
235.3603907845
 10
296.5351998551
 20
235.2771827004
 10
298.7416157244
 20
235.0834527037
 10
300.9232081218
 20
234.7801395676
 10
303.0691089785
 20
234.3687781117
 10
305.1686276427
 20
233.8513948939
 10
307.2113039649
 20
233.2305827162
 10
309.1869623145
 20
232.5094261191
 10
311.0857595435
 20
231.6915311835
 10
312.8982343456
 20
230.7809659264
 10
314.6153603426
 20
229.7822603009
 10
316.2285805425
 20
228.7003912947
 10
317.7298576316
 20
227.5407680294
 10
319.1117149523
 20
226.3091423533
 10
320.3672644427
 20
225.0116535447
 10
321.4902550659
 20
223.6547687075
 10
322.475089573
 20
222.2452678702
 10
323.3168617567
 20
220.7901396773
 10
324.0113769403
 20
219.2966558955
 10
324.5551780543
 20
217.7722522042
 10
324.9455549499
 20
216.2245281956
 10
325.1805611631
 20
214.661172869
 10
325.2590269527
 20
213.0899944327
  0
LINE
  5
A3
330
1F
100
AcDbEntity
  8
0
  6
Continuous
 62
     1
370
    25
100
AcDbLine
 10
262.2590259394
 20
133.0422678015
 30
0.0
 11
325.2590269527
 21
133.0422678015
 31
0.0
  0
LWPOLYLINE
  5
A4
330
1F
100
AcDbEntity
  8
0
  6
Continuous
 62
     1
370
    25
100
AcDbPolyline
 90
       46
 70
   128
 43
0.0
 10
262.2590259394
 20
155.3161361239
 10
262.3031706294
 20
156.4949446342
 10
262.4991208991
 20
158.0609821699
 10
262.8508069298
 20
159.6133404396
 10
263.3564759722
 20
161.1443006418
 10
264.0136097303
 20
162.6462184808
 10
264.8189318112
 20
164.1116135738
 10
265.7684338024
 20
165.5331992528
 10
266.8573827228
 20
166.9038751147
 10
268.0803545496
 20
168.2168313286
 10
269.4312547079
 20
169.4655113838
 10
270.903357186
 20
170.6436940453
 10
272.4893231621
 20
171.7455231569
 10
274.1812550208
 20
172.76550019
 10
275.9707224301
 20
173.6985438487
 10
277.8488089076
 20
174.5400124214
 10
279.8061602494
 20
175.2857037804
 10
281.8330245769
 20
175.9319075367
 10
283.919302628
 20
176.4754124901
 10
286.0546022399
 20
176.9134917281
 10
288.2282849146
 20
177.2439771316
 10
290.4295214663
 20
177.4652221224
 10
292.6473453386
 20
177.5761240146
 10
294.8707075535
 20
177.5761240146
 10
297.0885314258
 20
177.4652221224
 10
299.2897679774
 20
177.2439771316
 10
301.4634506522
 20
176.9134917281
 10
303.5987502641
 20
176.4754124901
 10
305.6850283152
 20
175.9319075367
 10
307.7118926427
 20
175.2857037804
 10
309.6692439845
 20
174.5400124214
 10
311.547330462
 20
173.6985438487
 10
313.3367978713
 20
172.76550019
 10
315.02872973
 20
171.7455231569
 10
316.6146957061
 20
170.6436940453
 10
318.0867981842
 20
169.4655113838
 10
319.4376983425
 20
168.2168313286
 10
320.6606701693
 20
166.9038751147
 10
321.7496190897
 20
165.5331992528
 10
322.6991210809
 20
164.1116135738
 10
323.5044431618
 20
162.6462184808
 10
324.1615769199
 20
161.1443006418
 10
324.6672459623
 20
159.6133404396
 10
325.018931993
 20
158.0609821699
 10
325.2148822627
 20
156.4949446342
 10
325.2590269527
 20
155.3161361239
  0
LINE
  5
A5
330
1F
100
AcDbEntity
  8
0
  6
Continuous
 62
     7
370
    25
100
AcDbLine
 10
194.8772337204
 20
336.2826313997
 30
0.0
 11
137.1033688924
 21
336.2826313997
 31
0.0
  0
LINE
  5
A6
330
1F
100
AcDbEntity
  8
0
  6
Continuous
 62
     7
370
    25
100
AcDbLine
 10
137.1033688924
 20
273.2826303865
 30
0.0
 11
194.8772337204
 21
273.2826303865
 31
0.0
  0
LINE
  5
A7
330
1F
100
AcDbEntity
  8
0
  6
Continuous
 62
     7
370
    25
100
AcDbLine
 10
137.1033688924
 20
336.2826313997
 30
0.0
 11
127.8772320515
 21
336.2826313997
 31
0.0
  0
LINE
  5
A8
330
1F
100
AcDbEntity
  8
0
  6
Continuous
 62
     7
370
    25
100
AcDbLine
 10
127.8772320515
 20
273.2826303865
 30
0.0
 11
137.1033688924
 21
273.2826303865
 31
0.0
  0
CIRCLE
  5
A9
330
1F
100
AcDbEntity
  8
0
  6
Continuous
 62
     7
370
    25
100
AcDbCircle
 10
127.8772320515
 20
304.7826308931
 30
0.0
 40
25.70000000000005
  0
CIRCLE
  5
AA
330
1F
100
AcDbEntity
  8
0
  6
Continuous
 62
     7
370
    25
100
AcDbCircle
 10
127.8772320515
 20
304.7826308931
 30
0.0
 40
31.5
  0
LWPOLYLINE
  5
AB
330
1F
100
AcDbEntity
  8
0
  6
Continuous
 62
     7
370
    25
100
AcDbPolyline
 90
       46
 70
   128
 43
0.0
 10
194.8772337204
 20
336.2826313997
 10
196.4484047061
 20
336.2041656102
 10
198.0117525822
 20
335.969159397
 10
199.5594840414
 20
335.5787825013
 10
201.0838877326
 20
335.0349813874
 10
202.5773715145
 20
334.3404662038
 10
204.0324997074
 20
333.49869402
 10
205.4420079953
 20
332.5138595129
 10
206.7988853818
 20
331.3908688898
 10
208.0963667399
 20
330.1353193993
 10
209.3279998666
 20
328.7534620787
 10
210.4876305825
 20
327.2521849896
 10
211.5694921381
 20
325.6389647896
 10
212.5681977636
 20
323.9218387927
 10
213.4787704712
 20
322.1093639905
 10
214.2966654068
 20
320.2105667616
 10
215.0178145534
 20
318.2349084119
 10
215.6386267311
 20
316.1922320897
 10
216.1560024983
 20
314.0927134256
 10
216.5673714048
 20
311.9468125689
 10
216.8706845409
 20
309.7652201715
 10
217.0644219882
 20
307.5588043022
 10
217.1476300723
 20
305.3385580598
 10
217.1198841101
 20
303.1155420641
 10
216.9813256628
 20
300.9008316031
 10
216.7326401836
 20
298.7054600554
 10
216.3750793702
 20
296.5403646405
 10
215.9104164607
 20
294.4163317035
 10
215.3409685856
 20
292.3439424659
 10
214.6695669657
 20
290.3335234324
 10
213.8995643622
 20
288.3950881834
 10
213.034797824
 20
286.5382954652
 10
212.0795663363
 20
284.7723942424
 10
211.0386308199
 20
283.1061836506
 10
209.9171843297
 20
281.5479636366
 10
208.7208073503
 20
280.1054977054
 10
207.4554603464
 20
278.7859738047
 10
206.1274539596
 20
277.5959614838
 10
204.743396855
 20
276.5413932676
 10
203.3101882702
 20
275.6275199528
 10
201.8349658615
 20
274.8588975693
 10
200.3250833518
 20
274.2393519903
 10
198.7880583769
 20
273.7719733442
 10
197.2315501338
 20
273.459086212
 10
195.6633072263
 20
273.3022552157
 10
194.8772337204
 20
273.2826303865
  0
LWPOLYLINE
  5
AC
330
1F
100
AcDbEntity
  8
0
  6
Continuous
 62
     1
370
    25
100
AcDbPolyline
 90
       24
 70
   128
 43
0.0
 10
159.3772325582
 20
304.7826308931
 10
159.3217480844
 20
302.5606537877
 10
159.1555740601
 20
300.3497463825
 10
158.8795356369
 20
298.1609231966
 10
158.4950111723
 20
296.0050888533
 10
158.0039136029
 20
293.8929842959
 10
157.4086904443
 20
291.835131141
 10
156.7123088902
 20
289.841782319
 10
155.9182353235
 20
287.9228666599
 10
155.0304260022
 20
286.0879469837
 10
154.0533065713
 20
284.3461632902
 10
152.9917422599
 20
282.7061917807
 10
151.8510229802
 20
281.1762057419
 10
150.6368316627
 20
279.7638233925
 10
149.3552181787
 20
278.4760855312
 10
148.0125658131
 20
277.3194052453
 10
146.6155651874
 20
276.2995436961
 10
145.1711751437
 20
275.4215859051
 10
143.6865910804
 20
274.6899016375
 10
142.1692095614
 20
274.1081379528
 10
140.6265910632
 20
273.6791931267
 10
139.0664199284
 20
273.4052036131
 10
137.4964680439
 20
273.2875365938
 10
137.1033688924
 20
273.2826303865
  0
LWPOLYLINE
  5
AD
330
1F
100
AcDbEntity
  8
0
  6
Continuous
 62
     1
370
    25
100
AcDbPolyline
 90
       24
 70
   128
 43
0.0
 10
137.1033688924
 20
336.2826313997
 10
137.4964680439
 20
336.2777251924
 10
139.0664199284
 20
336.160058173
 10
140.6265910632
 20
335.8860686595
 10
142.1692095614
 20
335.4571238334
 10
143.6865910804
 20
334.8753601486
 10
145.1711751437
 20
334.1436758811
 10
146.6155651874
 20
333.26571809
 10
148.0125658131
 20
332.2458565409
 10
149.3552181787
 20
331.089176255
 10
150.6368316627
 20
329.8014383937
 10
151.8510229802
 20
328.3890560443
 10
152.9917422599
 20
326.8590700055
 10
154.0533065713
 20
325.2190984959
 10
155.0304260022
 20
323.4773148025
 10
155.9182353235
 20
321.6423951263
 10
156.7123088902
 20
319.7234794671
 10
157.4086904443
 20
317.7301306451
 10
158.0039136029
 20
315.6722774903
 10
158.4950111723
 20
313.5601729328
 10
158.8795356369
 20
311.4043385896
 10
159.1555740601
 20
309.2155154037
 10
159.3217480844
 20
307.0046079985
 10
159.3772325582
 20
304.7826308931
  0
LWPOLYLINE
  5
AE
330
1F
100
AcDbEntity
  8
0
  6
Continuous
 62
     1
370
    25
100
AcDbPolyline
 90
       37
 70
   128
 43
0.0
 10
133.2817775114
 20
329.9079351301
 10
132.861048813
 20
329.7725375916
 10
131.4877126283
 20
329.2247839446
 10
130.148998593
 20
328.5263348545
 10
128.8531606119
 20
327.6814986194
 10
127.60818789
 20
326.6954831953
 10
126.421756126
 20
325.5743682558
 10
125.3011800731
 20
324.3250642146
 10
124.2533683694
 20
322.9552749718
 10
123.2847812502
 20
321.4734457607
 10
122.4013905889
 20
319.8887119244
 10
121.6086418285
 20
318.2108439679
 10
120.9114239468
 20
316.4501870225
 10
120.3140345319
 20
314.6175947214
 10
119.8201564989
 20
312.7243677328
 10
119.4328362039
 20
310.7821769255
 10
119.1544592297
 20
308.8029967795
 10
118.9867447978
 20
306.799029716
 10
118.9307238823
 20
304.7826308931
 10
118.9867447978
 20
302.7662320702
 10
119.1544592297
 20
300.7622650067
 10
119.4328362039
 20
298.7830848607
 10
119.8201564989
 20
296.8408940534
 10
120.3140345319
 20
294.9476670648
 10
120.9114239468
 20
293.1150747637
 10
121.6086418285
 20
291.3544178183
 10
122.4013905889
 20
289.6765498618
 10
123.2847812502
 20
288.0918160255
 10
124.2533683694
 20
286.6099868144
 10
125.3011800731
 20
285.2401975716
 10
126.421756126
 20
283.9908935303
 10
127.60818789
 20
282.8697785909
 10
128.8531606119
 20
281.8837631668
 10
130.148998593
 20
281.0389269317
 10
131.4877126283
 20
280.3404778416
 10
132.861048813
 20
279.7927241946
 10
133.2817775114
 20
279.6573266561
  0
INSERT
  5
BA
330
1F
100
AcDbEntity
  8
FORMAT
 62
     7
100
AcDbBlockReference
  2
SW_CENTERMARKSYMBOL_0
 10
127.8772320515
 20
304.7826308931
 30
0.0
  0
LINE
  5
BB
330
1F
100
AcDbEntity
  8
0
  6
Continuous
 62
     7
370
    25
100
AcDbLine
 10
194.8772337204
 20
-23.329477951
 30
0.0
 11
137.1033688924
 21
-23.329477951
 31
0.0
  0
LINE
  5
BC
330
1F
100
AcDbEntity
  8
0
  6
Continuous
 62
     7
370
    25
100
AcDbLine
 10
137.1033688924
 20
-86.3294789643
 30
0.0
 11
194.8772337204
 21
-86.3294789643
 31
0.0
  0
LINE
  5
BD
330
1F
100
AcDbEntity
  8
0
  6
Continuous
 62
     7
370
    25
100
AcDbLine
 10
127.8772320515
 20
-86.3294789643
 30
0.0
 11
137.1033688924
 21
-86.3294789643
 31
0.0
  0
LINE
  5
BE
330
1F
100
AcDbEntity
  8
0
  6
Continuous
 62
     7
370
    25
100
AcDbLine
 10
137.1033688924
 20
-23.329477951
 30
0.0
 11
127.8772320515
 21
-23.329477951
 31
0.0
  0
LWPOLYLINE
  5
BF
330
1F
100
AcDbEntity
  8
0
  6
Continuous
 62
     7
370
    25
100
AcDbPolyline
 90
       90
 70
   128
 43
0.0
 10
194.8772337204
 20
-86.3294789643
 10
196.4484047061
 20
-86.2510131747
 10
198.0117525822
 20
-86.0160069615
 10
199.5594840414
 20
-85.6256300658
 10
201.0838877326
 20
-85.0818289519
 10
202.5773715145
 20
-84.3873137683
 10
204.0324997074
 20
-83.5455415845
 10
205.4420079953
 20
-82.5607070774
 10
206.7988853818
 20
-81.4377164543
 10
208.0963667399
 20
-80.1821669639
 10
209.3279998666
 20
-78.8003096432
 10
210.4876305825
 20
-77.2990325541
 10
211.5694921381
 20
-75.6858123541
 10
212.5681977636
 20
-73.9686863572
 10
213.4787704712
 20
-72.156211555
 10
214.2966654068
 20
-70.2574143261
 10
215.0178145534
 20
-68.2817559764
 10
215.6386267311
 20
-66.2390796543
 10
216.1560024983
 20
-64.1395609901
 10
216.5673714048
 20
-61.9936601334
 10
216.8706845409
 20
-59.812067736
 10
217.0644219882
 20
-57.6056518667
 10
217.1476300723
 20
-55.3854056243
 10
217.1198841101
 20
-53.1623896286
 10
216.9813256628
 20
-50.9476791677
 10
216.7326401836
 20
-48.7523076199
 10
216.3750793702
 20
-46.587212205
 10
215.9104164607
 20
-44.463179268
 10
215.3409685856
 20
-42.3907900304
 10
214.6695669657
 20
-40.3803709969
 10
213.8995643622
 20
-38.4419357479
 10
213.034797824
 20
-36.5851430297
 10
212.0795663363
 20
-34.8192418069
 10
211.0386308199
 20
-33.1530312151
 10
209.9171843297
 20
-31.5948112011
 10
208.7208073503
 20
-30.15234527
 10
207.4554603464
 20
-28.8328213692
 10
206.1274539596
 20
-27.6428090483
 10
204.743396855
 20
-26.5882408321
 10
203.3101882702
 20
-25.6743675173
 10
201.8349658615
 20
-24.9057451338
 10
200.3250833518
 20
-24.2861995548
 10
198.7880583769
 20
-23.8188209087
 10
197.2315501338
 20
-23.5059337765
 10
195.6633072263
 20
-23.3491027803
 10
194.091152764
 20
-23.3491027803
 10
192.522917307
 20
-23.5059337765
 10
190.966409064
 20
-23.8188209087
 10
189.4293803638
 20
-24.2861995548
 10
187.9194978541
 20
-24.9057451338
 10
186.4442754454
 20
-25.6743675173
 10
185.0110668606
 20
-26.5882408321
 10
183.627009756
 20
-27.6428090483
 10
182.2989996439
 20
-28.8328213692
 10
181.0336563653
 20
-30.15234527
 10
179.8372793859
 20
-31.5948112011
 10
178.7158328957
 20
-33.1530312151
 10
177.6749011046
 20
-34.8192418069
 10
176.7196696168
 20
-36.5851430297
 10
175.8548956281
 20
-38.4419357479
 10
175.0848930246
 20
-40.3803709969
 10
174.41349513
 20
-42.3907900304
 10
173.8440472549
 20
-44.463179268
 10
173.3793843454
 20
-46.587212205
 10
173.0218198067
 20
-48.7523076199
 10
172.7731417781
 20
-50.9476791677
 10
172.6345833308
 20
-53.1623896286
 10
172.6068373686
 20
-55.3854056243
 10
172.6900417274
 20
-57.6056518667
 10
172.8837791747
 20
-59.812067736
 10
173.1870885855
 20
-61.9936601334
 10
173.598457492
 20
-64.1395609901
 10
174.1158369845
 20
-66.2390796543
 10
174.7366491622
 20
-68.2817559764
 10
175.4577983088
 20
-70.2574143261
 10
176.2756969697
 20
-72.156211555
 10
177.1862622267
 20
-73.9686863572
 10
178.1849678523
 20
-75.6858123541
 10
179.2668331331
 20
-77.2990325541
 10
180.4264675743
 20
-78.8003096432
 10
181.6580932504
 20
-80.1821669639
 10
182.9555783338
 20
-81.4377164543
 10
184.3124557203
 20
-82.5607070774
 10
185.7219677335
 20
-83.5455415845
 10
187.1770884758
 20
-84.3873137683
 10
188.6705722577
 20
-85.0818289519
 10
190.194975949
 20
-85.6256300658
 10
191.7427074081
 20
-86.0160069615
 10
193.3060552842
 20
-86.2510131747
 10
194.8772337204
 20
-86.3294789643
  0
LWPOLYLINE
  5
C0
330
1F
100
AcDbEntity
  8
0
  6
Continuous
 62
     7
370
    25
100
AcDbPolyline
 90
       81
 70
   128
 43
0.0
 10
194.8772337204
 20
-80.529477641
 10
193.4514235622
 20
-80.4502537549
 10
192.034405089
 20
-80.2130682469
 10
190.6349103815
 20
-79.8193851561
 10
189.2615746623
 20
-79.2716315091
 10
187.9228617913
 20
-78.573182419
 10
186.6270232862
 20
-77.7283461839
 10
185.382049895
 20
-76.7423307598
 10
184.1956194407
 20
-75.6212158204
 10
183.0750446683
 20
-74.3719117791
 10
182.0272322661
 20
-73.0021225363
 10
181.0586456126
 20
-71.5202933252
 10
180.175252623
 20
-69.9355594889
 10
179.3825071222
 20
-68.2576915324
 10
178.6852892405
 20
-66.497034587
 10
178.0878979629
 20
-64.6644422859
 10
177.5940213269
 20
-62.7712152973
 10
177.2066991693
 20
-60.82902449
 10
176.9283231265
 20
-58.849844344
 10
176.7606068319
 20
-56.8458772805
 10
176.7045859164
 20
-54.8294784576
 10
176.7606068319
 20
-52.8130796347
 10
176.9283231265
 20
-50.8091125712
 10
177.2066991693
 20
-48.8299324252
 10
177.5940213269
 20
-46.8877416179
 10
178.0878979629
 20
-44.9945146293
 10
178.6852892405
 20
-43.1619223282
 10
179.3825071222
 20
-41.4012653828
 10
180.175252623
 20
-39.7233974264
 10
181.0586456126
 20
-38.13866359
 10
182.0272322661
 20
-36.6568343789
 10
183.0750446683
 20
-35.2870451361
 10
184.1956194407
 20
-34.0377410949
 10
185.382049895
 20
-32.9166261554
 10
186.6270232862
 20
-31.9306107313
 10
187.9228617913
 20
-31.0857744962
 10
189.2615746623
 20
-30.3873254061
 10
190.6349103815
 20
-29.8395717591
 10
192.034405089
 20
-29.4458886683
 10
193.4514235622
 20
-29.2087031603
 10
194.8772337204
 20
-29.1294792742
 10
196.3030438787
 20
-29.2087031603
 10
197.7200623518
 20
-29.4458886683
 10
199.1195496088
 20
-29.8395717591
 10
200.492885328
 20
-30.3873254061
 10
201.8316056496
 20
-31.0857744962
 10
203.1274404294
 20
-31.9306107313
 10
204.3724100954
 20
-32.9166261554
 10
205.5588480002
 20
-34.0377410949
 10
206.6794227725
 20
-35.2870451361
 10
207.7272351748
 20
-36.6568343789
 10
208.695818103
 20
-38.13866359
 10
209.5792110926
 20
-39.7233974264
 10
210.3719603187
 20
-41.4012653828
 10
211.0691782004
 20
-43.1619223282
 10
211.6665657526
 20
-44.9945146293
 10
212.1604423887
 20
-46.8877416179
 10
212.5477682716
 20
-48.8299324252
 10
212.8261443144
 20
-50.8091125712
 10
212.9938568837
 20
-52.8130796347
 10
213.0498777992
 20
-54.8294784576
 10
212.9938568837
 20
-56.8458772805
 10
212.8261443144
 20
-58.849844344
 10
212.5477682716
 20
-60.82902449
 10
212.1604423887
 20
-62.7712152973
 10
211.6665657526
 20
-64.6644422859
 10
211.0691782004
 20
-66.497034587
 10
210.3719603187
 20
-68.2576915324
 10
209.5792110926
 20
-69.9355594889
 10
208.695818103
 20
-71.5202933252
 10
207.7272351748
 20
-73.0021225363
 10
206.6794227725
 20
-74.3719117791
 10
205.5588480002
 20
-75.6212158204
 10
204.3724100954
 20
-76.7423307598
 10
203.1274404294
 20
-77.7283461839
 10
201.8316056496
 20
-78.573182419
 10
200.492885328
 20
-79.2716315091
 10
199.1195496088
 20
-79.8193851561
 10
197.7200623518
 20
-80.2130682469
 10
196.3030438787
 20
-80.4502537549
 10
194.8772337204
 20
-80.529477641
  0
ARC
  5
C1
330
1F
100
AcDbEntity
  8
0
  6
Continuous
 62
     7
370
    25
100
AcDbCircle
 10
127.8772320515
 20
-54.8294784576
 30
0.0
 40
31.5
100
AcDbArc
 50
90.0
 51
270.0
  0
LWPOLYLINE
  5
C2
330
1F
100
AcDbEntity
  8
0
  6
Continuous
 62
     1
370
    25
100
AcDbPolyline
 90
       46
 70
   128
 43
0.0
 10
137.1033688924
 20
-23.329477951
 10
135.9245585194
 20
-23.373622641
 10
134.3585219151
 20
-23.5695729107
 10
132.8061594545
 20
-23.9212589413
 10
131.2752057715
 20
-24.4269279838
 10
129.773287816
 20
-25.0840617419
 10
128.3078877463
 20
-25.8893838227
 10
126.8863063455
 20
-26.838885814
 10
125.5156259435
 20
-27.9278347344
 10
124.2026750846
 20
-29.1508065612
 10
122.9539945638
 20
-30.5017067194
 10
121.7758058487
 20
-31.9738091976
 10
120.6739781341
 20
-33.5597751737
 10
119.654001101
 20
-35.2517070324
 10
118.7209555796
 20
-37.0411744416
 10
117.879489801
 20
-38.9192609191
 10
117.1337975106
 20
-40.876612261
 10
116.4875918916
 20
-42.9034765885
 10
115.9440934575
 20
-44.9897546396
 10
115.5060095629
 20
-47.1250542514
 10
115.1755222967
 20
-49.2987369262
 10
114.9542782372
 20
-51.4999734778
 10
114.8433800704
 20
-53.7177973502
 10
114.8433800704
 20
-55.941159565
 10
114.9542782372
 20
-58.1589834374
 10
115.1755222967
 20
-60.360219989
 10
115.5060095629
 20
-62.5339026638
 10
115.9440934575
 20
-64.6692022756
 10
116.4875918916
 20
-66.7554803268
 10
117.1337975106
 20
-68.7823446542
 10
117.879489801
 20
-70.7396959961
 10
118.7209555796
 20
-72.6177824736
 10
119.654001101
 20
-74.4072498829
 10
120.6739781341
 20
-76.0991817415
 10
121.7758058487
 20
-77.6851477176
 10
122.9539945638
 20
-79.1572501958
 10
124.2026750846
 20
-80.5081503541
 10
125.5156259435
 20
-81.7311221809
 10
126.8863063455
 20
-82.8200711012
 10
128.3078877463
 20
-83.7695730925
 10
129.773287816
 20
-84.5748951734
 10
131.2752057715
 20
-85.2320289314
 10
132.8061594545
 20
-85.7376979739
 10
134.3585219151
 20
-86.0893840045
 10
135.9245585194
 20
-86.2853342742
 10
137.1033688924
 20
-86.3294789643
  0
INSERT
  5
CE
330
1F
100
AcDbEntity
  8
FORMAT
 62
     7
100
AcDbBlockReference
  2
SW_CENTERMARKSYMBOL_1
 10
127.8772320515
 20
-54.8294784576
 30
0.0
  0
LINE
  5
CF
330
1F
100
AcDbEntity
  8
0
  6
Continuous
 62
     7
370
    25
100
AcDbLine
 10
239.2793334546
 20
-78.7953638979
 30
0.0
 11
239.2793334546
 21
-144.0796551864
 31
0.0
  0
LINE
  5
D0
330
1F
100
AcDbEntity
  8
0
  6
Continuous
 62
     7
370
    25
100
AcDbLine
 10
302.2793309855
 20
-144.0796551864
 30
0.0
 11
302.2793309855
 21
-78.7953638979
 31
0.0
  0
LINE
  5
D1
330
1F
100
AcDbEntity
  8
0
  6
Continuous
 62
     7
370
    25
100
AcDbLine
 10
290.8756871599
 20
29.6665475187
 30
0.0
 11
250.0233954
 21
-41.0916977778
 31
0.0
  0
LINE
  5
D2
330
1F
100
AcDbEntity
  8
0
  6
Continuous
 62
     7
370
    25
100
AcDbLine
 10
304.5829960656
 20
-72.5916985717
 30
0.0
 11
345.4352856852
 21
-1.8334605945
 31
0.0
  0
SPLINE
  5
D3
330
1F
100
AcDbEntity
  8
0
  6
Continuous
 62
     7
370
    25
100
AcDbSpline
210
0.0
220
0.0
230
1.0
 70
     8
 71
     3
 72
    21
 73
    17
 74
     0
 42
0.000000001
 43
0.00000001
 40
0.0
 40
0.0
 40
0.0
 40
0.0
 40
0.0429970035117401
 40
0.1169555949223632
 40
0.1910389954002578
 40
0.265311319955495
 40
0.3398392598784568
 40
0.4146839420896298
 40
0.4898957205899934
 40
0.5655092566090587
 40
0.6415367126294822
 40
0.7179598091767271
 40
0.7947228675099042
 40
0.871725787605236
 40
0.948770962547595
 40
1.0
 40
1.0
 40
1.0
 40
1.0
 10
250.0233953999878
 20
-41.0916977777786
 30
0.0
 10
249.7358785805799
 20
-41.59675253579458
 30
0.0
 10
248.9538077868592
 20
-42.9705454717605
 30
0.0
 10
247.751510762936
 20
-45.25523282647477
 30
0.0
 10
246.4434672700514
 20
-47.95443349215383
 30
0.0
 10
245.2329022993547
 20
-50.69924286550896
 30
0.0
 10
244.1211054063233
 20
-53.48577287025286
 30
0.0
 10
243.1118686624578
 20
-56.31140394739574
 30
0.0
 10
242.208848443108
 20
-59.17294774714717
 30
0.0
 10
241.4163752776061
 20
-62.06686458389267
 30
0.0
 10
240.7391253795059
 20
-64.98887190618619
 30
0.0
 10
240.1824265909836
 20
-67.93365375938357
 30
0.0
 10
239.7508951918731
 20
-70.89464117031737
 30
0.0
 10
239.4527325527945
 20
-73.86266736895716
 30
0.0
 10
239.3012225485519
 20
-76.49855314311323
 30
0.0
 10
239.2855804568759
 20
-78.13986933566473
 30
0.0
 10
239.2793334545725
 20
-78.7953638978975
 30
0.0
  0
SPLINE
  5
D4
330
1F
100
AcDbEntity
  8
0
  6
Continuous
 62
     7
370
    25
100
AcDbSpline
210
0.0
220
0.0
230
1.0
 70
     8
 71
     3
 72
    20
 73
    16
 74
     0
 42
0.000000001
 43
0.00000001
 40
0.0
 40
0.0
 40
0.0
 40
0.0
 40
0.0153365910278442
 40
0.1099566458275229
 40
0.2010844408367864
 40
0.289803528600088
 40
0.3770700411267899
 40
0.4636878082992335
 40
0.5502891808618398
 40
0.6373086653975306
 40
0.7249292574209378
 40
0.8133067617777698
 40
0.9024439855401813
 40
0.992226841797873
 40
1.0
 40
1.0
 40
1.0
 40
1.0
 10
302.2790754702584
 20
-78.8173572723052
 30
0.0
 10
302.2790525062054
 20
-78.82021274577248
 30
0.0
 10
302.2788878639956
 20
-78.84068524087547
 30
0.0
 10
302.2819675887515
 20
-78.75569049417493
 30
0.0
 10
302.3043103842655
 20
-78.55372535484624
 30
0.0
 10
302.3558421273675
 20
-78.22155783407068
 30
0.0
 10
302.4454646605977
 20
-77.7822421633994
 30
0.0
 10
302.5808327308051
 20
-77.24174126627095
 30
0.0
 10
302.7679715041446
 20
-76.61230087829199
 30
0.0
 10
303.0108160701199
 20
-75.90698152415604
 30
0.0
 10
303.3113977202792
 20
-75.14148636749454
 30
0.0
 10
303.6677867152993
 20
-74.33209849359844
 30
0.0
 10
304.0808282420526
 20
-73.50044924864086
 30
0.0
 10
304.3912011950794
 20
-72.91306703997151
 30
0.0
 10
304.5696384373824
 20
-72.61695161433231
 30
0.0
 10
304.5838561247414
 20
-72.59335745601895
 30
0.0
  0
LWPOLYLINE
  5
D5
330
1F
100
AcDbEntity
  8
0
  6
Continuous
 62
     7
370
    25
100
AcDbPolyline
 90
       90
 70
   128
 43
0.0
 10
248.5054682544
 20
-131.2212272184
 10
250.1321270252
 20
-130.3462372054
 10
251.8616491309
 20
-129.5396663247
 10
253.6854189986
 20
-128.8055332547
 10
255.5943495372
 20
-128.1474947523
 10
257.5789293883
 20
-127.5688290202
 10
259.6292741281
 20
-127.0724198355
 10
261.7351677557
 20
-126.6607402017
 10
263.8861203157
 20
-126.3358403738
 10
266.0714120205
 20
-126.0993391141
 10
268.2801597635
 20
-125.9524157089
 10
270.5013579491
 20
-125.895800084
 10
272.7239403951
 20
-125.9297766061
 10
274.9368369686
 20
-126.0541741991
 10
277.129018366
 20
-126.2683739466
 10
279.2895672365
 20
-126.5713090927
 10
281.4077196702
 20
-126.9614692233
 10
283.472919857
 20
-127.4369120517
 10
285.474882649
 20
-127.9952676002
 10
287.403632743
 20
-128.6337547378
 10
289.2495613163
 20
-129.349192585
 10
291.0034727826
 20
-130.1380168612
 10
292.6566271038
 20
-130.9962982279
 10
294.2007909918
 20
-131.9197596815
 10
295.6282700126
 20
-132.9038011692
 10
296.9319525442
 20
-133.9435204033
 10
298.105344185
 20
-135.0337372872
 10
299.1425985418
 20
-136.1690208123
 10
300.0385503205
 20
-137.3437142442
 10
300.7887319553
 20
-138.5519660117
 10
301.3894094988
 20
-139.7877565084
 10
301.8375885492
 20
-141.0449288869
 10
302.1310386161
 20
-142.3172198522
 10
302.2682937796
 20
-143.598291976
 10
302.2486744216
 20
-144.8817614497
 10
302.0722753726
 20
-146.1612353404
 10
301.739975131
 20
-147.4303382029
 10
301.2534332288
 20
-148.6827485764
 10
300.6150691588
 20
-149.912226356
 10
299.8280656663
 20
-151.112647389
 10
298.8963424084
 20
-152.2780293257
 10
297.8245424532
 20
-153.4025683059
 10
296.6180033038
 20
-154.480660249
 10
295.282738624
 20
-155.5069357338
 10
293.8253965854
 20
-156.4762794826
 10
292.2532420862
 20
-157.3838649565
 10
290.5741075256
 20
-158.2251706077
 10
288.7963536201
 20
-158.9960024997
 10
286.9288412506
 20
-159.6925227248
 10
284.980871535
 20
-160.3112596688
 10
282.9621520781
 20
-160.8491320566
 10
280.8827365495
 20
-161.3034595022
 10
278.7529878056
 20
-161.6719792356
 10
276.5835143399
 20
-161.9528538972
 10
274.385125502
 20
-162.1446867434
 10
272.1687715698
 20
-162.2465197468
 10
269.9454963349
 20
-162.2578457611
 10
267.7263738817
 20
-162.1786100418
 10
265.5224624895
 20
-162.009204924
 10
263.3447400953
 20
-161.7504766655
 10
261.2040562199
 20
-161.4037129007
 10
259.1110759915
 20
-160.970642261
 10
257.0762268039
 20
-160.4534203086
 10
255.1096449742
 20
-159.8546261141
 10
253.2211293154
 20
-159.1772415384
 10
251.4200876297
 20
-158.4246416325
 10
249.7154930799
 20
-157.6005755345
 10
248.1158375975
 20
-156.7091486965
 10
246.6290895709
 20
-155.7548030207
 10
245.2626577906
 20
-154.7422914831
 10
244.0233488079
 20
-153.6766596003
 10
242.9173368069
 20
-152.5632158714
 10
241.9501318295
 20
-151.4075073515
 10
241.126551458
 20
-150.2152926607
 10
240.4507010589
 20
-148.9925092884
 10
239.9259451361
 20
-147.7452509741
 10
239.5549000868
 20
-146.4797315907
 10
239.3394137871
 20
-145.2022535907
 10
239.2805583474
 20
-143.9191840555
 10
239.3786301126
 20
-142.6369136369
 10
239.6331364915
 20
-141.3618307057
 10
240.0428130786
 20
-140.1002886572
 10
240.605617069
 20
-138.8585701751
 10
241.3187443799
 20
-137.6428636609
 10
242.1786434811
 20
-136.4592248371
 10
243.1810305403
 20
-135.3135512754
 10
244.3209101682
 20
-134.2115491322
 10
245.5926037356
 20
-133.158709198
 10
246.9897768675
 20
-132.1602773385
 10
248.5054682544
 20
-131.2212272184
  0
LWPOLYLINE
  5
D6
330
1F
100
AcDbEntity
  8
0
  6
Continuous
 62
     7
370
    25
100
AcDbPolyline
 90
       81
 70
   128
 43
0.0
 10
252.606688521
 20
-133.5888112828
 10
251.2368989868
 20
-134.4442529723
 10
249.9875957681
 20
-135.3591005419
 10
248.8664800488
 20
-136.3277129393
 10
247.8804640768
 20
-137.3441183645
 10
247.0356285227
 20
-138.4020510515
 10
246.3371795103
 20
-139.4949882393
 10
245.7894252376
 20
-140.6161910409
 10
245.3957414038
 20
-141.7587472114
 10
245.1585567211
 20
-142.9156129676
 10
245.0793324997
 20
-144.0796551864
 10
245.1585567211
 20
-145.2436974052
 10
245.3957414038
 20
-146.4005631614
 10
245.7894252376
 20
-147.543119332
 10
246.3371795103
 20
-148.6643221335
 10
247.0356285227
 20
-149.7572593213
 10
247.8804640768
 20
-150.8151920083
 10
248.8664800488
 20
-151.8315974335
 10
249.9875957681
 20
-152.8002098309
 10
251.2368989868
 20
-153.7150574005
 10
252.606688521
 20
-154.57049909
 10
254.0885175493
 20
-155.3612617562
 10
255.6732517303
 20
-156.0824691531
 10
257.3511194159
 20
-156.7296754816
 10
259.1117760243
 20
-157.2988903862
 10
260.9443677542
 20
-157.7866035703
 10
262.8375956282
 20
-158.1898096027
 10
264.7797862864
 20
-158.5060214135
 10
266.7589660726
 20
-158.7332902532
 10
268.762933474
 20
-158.8702140561
 10
270.7793322201
 20
-158.9159492256
 10
272.7957309661
 20
-158.8702140561
 10
274.7996983675
 20
-158.7332902532
 10
276.7788781537
 20
-158.5060214135
 10
278.7210688119
 20
-158.1898096027
 10
280.6142966859
 20
-157.7866035703
 10
282.4468884158
 20
-157.2988903862
 10
284.2075450242
 20
-156.7296754816
 10
285.8854127098
 20
-156.0824691531
 10
287.4701468908
 20
-155.3612617562
 10
288.9519759191
 20
-154.57049909
 10
290.3217654533
 20
-153.7150574005
 10
291.571068672
 20
-152.8002098309
 10
292.6921843913
 20
-151.8315974335
 10
293.6782003633
 20
-150.8151920083
 10
294.5230359174
 20
-149.7572593213
 10
295.2214849298
 20
-148.6643221335
 10
295.7692392025
 20
-147.543119332
 10
296.1629230363
 20
-146.4005631614
 10
296.400107719
 20
-145.2436974052
 10
296.4793319404
 20
-144.0796551864
 10
296.400107719
 20
-142.9156129676
 10
296.1629230363
 20
-141.7587472114
 10
295.7692392025
 20
-140.6161910409
 10
295.2214849298
 20
-139.4949882393
 10
294.5230359174
 20
-138.4020510515
 10
293.6782003633
 20
-137.3441183645
 10
292.6921843913
 20
-136.3277129393
 10
291.571068672
 20
-135.3591005419
 10
290.3217654533
 20
-134.4442529723
 10
288.9519759191
 20
-133.5888112828
 10
287.4701468908
 20
-132.7980486166
 10
285.8854127098
 20
-132.0768412198
 10
284.2075450242
 20
-131.4296348912
 10
282.4468884158
 20
-130.8604199866
 10
280.6142966859
 20
-130.3727068026
 10
278.7210688119
 20
-129.9695007702
 10
276.7788781537
 20
-129.6532889593
 10
274.7996983675
 20
-129.4260201196
 10
272.7957309661
 20
-129.2890963168
 10
270.77933222
 20
-129.2433611473
 10
268.762933474
 20
-129.2890963168
 10
266.7589660726
 20
-129.4260201196
 10
264.7797862864
 20
-129.6532889593
 10
262.8375956282
 20
-129.9695007702
 10
260.9443677542
 20
-130.3727068026
 10
259.1117760243
 20
-130.8604199866
 10
257.3511194159
 20
-131.4296348912
 10
255.6732517303
 20
-132.0768412198
 10
254.0885175493
 20
-132.7980486166
 10
252.606688521
 20
-133.5888112828
  0
LWPOLYLINE
  5
D7
330
1F
100
AcDbEntity
  8
0
  6
Continuous
 62
     7
370
    25
100
AcDbPolyline
 90
       90
 70
   128
 43
0.0
 10
295.881623774
 20
26.7749721905
 10
297.0480931243
 20
26.1013691898
 10
298.3197214958
 20
25.367072384
 10
299.6901710562
 20
24.575717225
 10
301.1526126988
 20
23.7312653466
 10
302.6997616045
 20
22.8379171092
 10
304.3239154366
 20
21.9001321312
 10
306.0169714634
 20
20.9225585655
 10
307.7705029495
 20
19.9100924118
 10
309.575768375
 20
18.867756605
 10
311.423785193
 20
17.8007618502
 10
313.305331146
 20
16.714408525
 10
315.2110417311
 20
15.6141155746
 10
317.131424688
 20
14.5053695628
 10
319.0569100476
 20
13.3936957756
 10
320.9779014996
 20
12.2846224806
 10
322.8848323677
 20
11.1836851098
 10
324.7682031476
 20
10.0963559195
 10
326.6186269457
 20
9.0280542592
 10
328.4268897365
 20
7.9841056974
 10
330.1839832899
 20
6.9697290978
 10
331.8811479759
 20
5.9899449865
 10
333.5099361503
 20
5.0496545461
 10
335.0622264776
 20
4.1535400965
 10
336.5302876452
 20
3.3060708943
 10
337.9068025651
 20
2.5114465787
 10
339.1849225391
 20
1.7736571552
 10
340.358274338
 20
1.0963572405
 10
341.4210143672
 20
0.4829260463
 10
342.3678426604
 20
-0.0635771978
 10
343.1940493074
 20
-0.5404339634
 10
343.8955177464
 20
-0.9452622354
 10
344.4687478134
 20
-1.2760602337
 10
344.9108840594
 20
-1.5311619233
 10
345.2197295798
 20
-1.7093058312
 10
345.3937407464
 20
-1.8095954964
 10
345.4320495975
 20
-1.8315549812
 10
345.3344730578
 20
-1.7750368499
 10
345.1014892305
 20
-1.6403605685
 10
344.7342637394
 20
-1.4281756181
 10
344.2346220699
 20
-1.139536776
 10
343.6050587887
 20
-0.775903352
 10
342.8487046162
 20
-0.3390654189
 10
341.9693316954
 20
0.168798395
 10
340.9713127619
 20
0.7451384003
 10
339.8596316805
 20
1.387112937
 10
338.6398254935
 20
2.0915062486
 10
337.3179633469
 20
2.8548014879
 10
335.9006333201
 20
3.6732096183
 10
334.3949002786
 20
4.5426572461
 10
332.80826241
 20
5.4587934695
 10
331.1486248828
 20
6.4170720074
 10
329.4242563817
 20
7.4127185023
 10
327.6437456442
 20
8.4407586575
 10
325.8159685332
 20
9.4960828771
 10
323.9500248167
 20
10.5734219317
 10
322.0552144602
 20
11.6674214833
 10
320.1409757236
 20
12.7726291574
 10
318.2168443315
 20
13.8835394095
 10
316.2924060576
 20
14.9946087333
 10
314.3772512856
 20
16.1003062293
 10
312.4809203499
 20
17.1951147455
 10
310.6128594127
 20
18.2735989357
 10
308.7823750252
 20
19.3303767406
 10
306.9985850654
 20
20.3601872561
 10
305.2703810364
 20
21.3578972892
 10
303.6063686334
 20
22.3185235053
 10
302.0148395902
 20
23.2372973473
 10
300.5037227826
 20
24.1096324287
 10
299.080544222
 20
24.9311962985
 10
297.7523975853
 20
25.6978757408
 10
296.5258982811
 20
26.405870213
 10
295.407156944
 20
27.0516341417
 10
294.4017471655
 20
27.6319624707
 10
293.5146752009
 20
28.1439564353
 10
292.7503644937
 20
28.5850781215
 10
292.1126181383
 20
28.9531204238
 10
291.604618222
 20
29.2462500049
 10
291.2288935555
 20
29.4630046326
 10
290.9873157224
 20
29.6023197891
 10
290.8810859078
 20
29.663481519
 10
290.9107388499
 20
29.6461880216
 10
291.0761217663
 20
29.5505283548
 10
291.3764141107
 20
29.3769953575
 10
291.8101170357
 20
29.1264248099
 10
292.3750731495
 20
28.8000844022
 10
293.0684638815
 20
28.3995961644
 10
293.8868371416
 20
27.9269600371
 10
294.8261165392
 20
27.3845120426
 10
295.881623774
 20
26.7749721905
  0
LWPOLYLINE
  5
D8
330
1F
100
AcDbEntity
  8
0
  6
Continuous
 62
     7
370
    25
100
AcDbPolyline
 90
       81
 70
   128
 43
0.0
 10
299.9828440406
 20
24.407388126
 10
299.0306637561
 20
24.9572653928
 10
298.1963958658
 20
25.4390599492
 10
297.485179651
 20
25.8498159599
 10
296.9014049693
 20
26.1870163194
 10
296.4486701081
 20
26.4485461552
 10
296.1297633446
 20
26.6328160271
 10
295.94665241
 20
26.7386919695
 10
295.9004673666
 20
26.7655114669
 10
295.9914927056
 20
26.7131184413
 10
296.2191647129
 20
26.5818191502
 10
296.5820820058
 20
26.3724430298
 10
297.0780048744
 20
26.0862639942
 10
297.703880965
 20
25.7250677408
 10
298.4558459383
 20
25.2910540389
 10
299.3292649582
 20
24.7869162032
 10
300.3187550818
 20
24.2157673348
 10
301.4182132478
 20
23.5811180851
 10
302.6208633626
 20
22.8868738087
 10
303.9192887333
 20
22.1373280113
 10
305.3054852453
 20
21.3371073161
 10
306.7709072958
 20
20.4911236556
 10
308.3065193249
 20
19.6046144866
 10
309.9028526149
 20
18.683040037
 10
311.5500670293
 20
17.7320689569
 10
313.2380041897
 20
16.7575719543
 10
314.9562620563
 20
15.7655665697
 10
316.6942420138
 20
14.7621656592
 10
318.4412295431
 20
13.7535369024
 10
320.1864587586
 20
12.745926379
 10
321.9191644332
 20
11.745525111
 10
323.6286669506
 20
10.7585173529
 10
325.3044243303
 20
9.7909684251
 10
326.9361053261
 20
8.8488615968
 10
328.5136526462
 20
7.9379946637
 10
330.0273382712
 20
7.0639936365
 10
331.4678293084
 20
6.2322442978
 10
332.8262446264
 20
5.4478534176
 10
334.0942128075
 20
4.715691338
 10
335.26391166
 20
4.0402566089
 10
336.3281314387
 20
3.4257003189
 10
337.2803117232
 20
2.8758352195
 10
338.1145796135
 20
2.3940284957
 10
338.82579056
 20
1.9832694436
 10
339.4095652416
 20
1.6460812515
 10
339.8623053712
 20
1.3845422897
 10
340.1812095005
 20
1.2002708971
 10
340.3643178009
 20
1.0943934341
 10
340.4105081127
 20
1.067576978
 10
340.3194827738
 20
1.119982171
 10
340.0918107665
 20
1.2512692947
 10
339.7288908394
 20
1.4606560618
 10
339.2329679707
 20
1.74682293
 10
338.6070945143
 20
2.1080328715
 10
337.855129541
 20
2.542034406
 10
336.981707887
 20
3.046170721
 10
335.9922177634
 20
3.6173317568
 10
334.8927622315
 20
4.2519825272
 10
333.6901121167
 20
4.9462146362
 10
332.3916841118
 20
5.6957589129
 10
331.0054875998
 20
6.4959917756
 10
329.5400655493
 20
7.3419632686
 10
328.0044561545
 20
8.2284739583
 10
326.4081228644
 20
9.1500605753
 10
324.7609058159
 20
10.1010301347
 10
323.0729686555
 20
11.0755149699
 10
321.3547134231
 20
12.0675218752
 10
319.6167334655
 20
13.0709349531
 10
317.869743302
 20
14.0795500218
 10
316.1245140865
 20
15.0871727127
 10
314.3918110461
 20
16.0875633339
 10
312.6823085287
 20
17.0745832594
 10
311.006551149
 20
18.0421200198
 10
309.3748648849
 20
18.9842238067
 10
307.7973201989
 20
19.8950922605
 10
306.2836372081
 20
20.7690948084
 10
304.8431409026
 20
21.6008532732
 10
303.4847255846
 20
22.3852319859
 10
302.2167626718
 20
23.1173971069
 10
301.0470638193
 20
23.7928440034
 10
299.9828440406
 20
24.407388126
  0
LWPOLYLINE
  5
D9
330
1F
100
AcDbEntity
  8
0
  6
Continuous
 62
     1
370
    25
100
AcDbPolyline
 90
       13
 70
   128
 43
0.0
 10
293.0531961857
 20
-65.9369359299
 10
294.5688875726
 20
-66.87598605
 10
295.9660607045
 20
-67.8744179094
 10
297.2377542719
 20
-68.9272578437
 10
298.3776338998
 20
-70.0292599868
 10
299.380020959
 20
-71.1749335485
 10
300.2399200602
 20
-72.3585723724
 10
300.9530473711
 20
-73.5742788866
 10
301.5158513615
 20
-74.8159973687
 10
301.9255279486
 20
-76.0775394172
 10
302.1800343275
 20
-77.3526223484
 10
302.2781060927
 20
-78.634892767
 10
302.2793309855
 20
-78.7953638979
  0
LWPOLYLINE
  5
DA
330
1F
100
AcDbEntity
  8
0
  6
Continuous
 62
     1
370
    25
100
AcDbPolyline
 90
       35
 70
   128
 43
0.0
 10
239.2793334546
 20
-78.7953638979
 10
239.2903706605
 20
-78.3140006875
 10
239.427625824
 20
-77.0329285637
 10
239.7210758909
 20
-75.7606375984
 10
240.1692549413
 20
-74.5034652199
 10
240.7699324848
 20
-73.2676747232
 10
241.5201141196
 20
-72.0594229557
 10
242.4160658983
 20
-70.8847295238
 10
243.4533202551
 20
-69.7494459987
 10
244.6267118959
 20
-68.6592291148
 10
245.9303944274
 20
-67.6195098806
 10
247.3578734483
 20
-66.635468393
 10
248.9020373363
 20
-65.7120069394
 10
250.5551916575
 20
-64.8537255727
 10
252.3091031238
 20
-64.0649012965
 10
254.1550316971
 20
-63.3494634493
 10
256.0837817911
 20
-62.7109763117
 10
258.0857445831
 20
-62.1526207632
 10
260.1509447699
 20
-61.6771779348
 10
262.2690972036
 20
-61.2870178042
 10
264.4296460741
 20
-60.9840826581
 10
266.6218274715
 20
-60.7698829106
 10
268.834724045
 20
-60.6454853176
 10
271.057306491
 20
-60.6115087954
 10
273.2785046766
 20
-60.6681244204
 10
275.4872524196
 20
-60.8150478256
 10
277.6725441244
 20
-61.0515490853
 10
279.8234966844
 20
-61.3764489132
 10
281.929390312
 20
-61.788128547
 10
283.9797350518
 20
-62.2845377317
 10
285.9643149029
 20
-62.8632034637
 10
287.8732454415
 20
-63.5212419662
 10
289.6970153092
 20
-64.2553750362
 10
291.4265374149
 20
-65.0619459169
 10
293.0531961857
 20
-65.9369359299
  0
LWPOLYLINE
  5
DB
330
1F
100
AcDbEntity
  8
0
  6
Continuous
 62
     1
370
    25
100
AcDbPolyline
 90
       15
 70
   128
 43
0.0
 10
293.0531961857
 20
-65.9369359299
 10
294.5851378169
 20
-66.8212996464
 10
296.0309826563
 20
-67.6559430126
 10
297.3835257329
 20
-68.4367144014
 10
298.6360309597
 20
-69.1597192518
 10
299.7822559933
 20
-69.8213557102
 10
300.816491582
 20
-70.4183312627
 10
301.7335859321
 20
-70.9476646311
 10
302.5289694034
 20
-71.4067228409
 10
303.1986775579
 20
-71.7932177959
 10
303.7393768433
 20
-72.1052256646
 10
304.1483724954
 20
-72.3411975219
 10
304.4236256605
 20
-72.4999448974
 10
304.5637678831
 20
-72.5806861572
 10
304.5829960656
 20
-72.5916985717
  0
LWPOLYLINE
  5
DC
330
1F
100
AcDbEntity
  8
0
  6
Continuous
 62
     1
370
    25
100
AcDbPolyline
 90
       32
 70
   128
 43
0.0
 10
250.0233954
 20
-41.0916977778
 10
250.0870898248
 20
-41.1286366839
 10
250.286304066
 20
-41.2438187995
 10
250.6201146177
 20
-41.4367156665
 10
251.0868602397
 20
-41.7063525737
 10
251.6842128743
 20
-42.051396119
 10
252.4091985963
 20
-42.4701299486
 10
253.258205042
 20
-42.9604535137
 10
254.22700238
 20
-43.5199368861
 10
255.310764467
 20
-44.1457872538
 10
256.5040912379
 20
-44.8348861865
 10
257.8010386701
 20
-45.5838073185
 10
259.1951444663
 20
-46.3888136905
 10
260.6794642746
 20
-47.2458915914
 10
262.2466026403
 20
-48.1507813593
 10
263.8887505424
 20
-49.0989663562
 10
265.5977301755
 20
-50.0857231597
 10
267.3650252418
 20
-51.1061405761
 10
269.1818310013
 20
-52.1551287656
 10
271.0390990525
 20
-53.2274679128
 10
272.9275728937
 20
-54.3178135504
 10
274.8378471923
 20
-55.4207277366
 10
276.7604020289
 20
-56.5307262043
 10
278.6856621664
 20
-57.6422745575
 10
280.6040352454
 20
-58.7498346577
 10
282.5059618338
 20
-59.8478874373
 10
284.381970086
 20
-60.9309598934
 10
286.2227119628
 20
-61.9936627286
 10
288.0190169025
 20
-63.0306985239
 10
289.7619372609
 20
-64.0369001394
 10
291.4427876592
 20
-65.0072595133
 10
293.0531961857
 20
-65.9369359299
  0
ENDSEC
  0
SECTION
  2
OBJECTS
  0
DICTIONARY
  5
C
330
0
100
AcDbDictionary
281
     1
  3
ACAD_GROUP
350
D
  3
ACAD_LAYOUT
350
1A
  3
ACAD_MLINESTYLE
350
17
  3
ACAD_PLOTSETTINGS
350
19
  3
ACAD_PLOTSTYLENAME
350
E
  3
ACAD_SCALELIST
350
47
  0
DICTIONARY
  5
D
102
{ACAD_REACTORS
330
C
102
}
330
C
100
AcDbDictionary
281
     1
  0
DICTIONARY
  5
1A
102
{ACAD_REACTORS
330
C
102
}
330
C
100
AcDbDictionary
281
     1
  3
Layout1
350
1E
  3
Layout2
350
26
  3
Model
350
22
  0
DICTIONARY
  5
17
102
{ACAD_REACTORS
330
C
102
}
330
C
100
AcDbDictionary
281
     1
  3
Standard
350
18
  0
DICTIONARY
  5
19
102
{ACAD_REACTORS
330
C
102
}
330
C
100
AcDbDictionary
281
     1
  0
ACDBDICTIONARYWDFLT
  5
E
102
{ACAD_REACTORS
330
C
102
}
330
C
100
AcDbDictionary
281
     1
  3
Normal
350
F
100
AcDbDictionaryWithDefault
340
F
  0
DICTIONARY
  5
47
102
{ACAD_REACTORS
330
C
102
}
330
C
100
AcDbDictionary
281
     1
  3
A0
350
48
  3
A1
350
49
  3
A2
350
4A
  3
A3
350
4B
  3
A4
350
4C
  3
A5
350
4D
  3
A6
350
4E
  3
A7
350
4F
  3
A8
350
50
  3
A9
350
51
  3
B0
350
52
  3
B1
350
53
  3
B2
350
54
  3
B3
350
55
  3
B4
350
56
  3
B5
350
57
  3
B6
350
58
  3
B7
350
59
  3
B8
350
5A
  3
B9
350
5B
  3
C0
350
5C
  3
C1
350
5D
  3
C2
350
5E
  3
C3
350
5F
  3
C4
350
60
  3
C5
350
61
  3
C6
350
62
  3
C7
350
63
  3
C8
350
64
  3
C9
350
65
  3
D0
350
66
  3
D1
350
67
  3
D2
350
68
  0
LAYOUT
  5
1E
102
{ACAD_REACTORS
330
1A
102
}
330
1A
100
AcDbPlotSettings
  1

  2
none_device
  4

  6

 40
0.0
 41
0.0
 42
0.0
 43
0.0
 44
0.0
 45
0.0
 46
0.0
 47
0.0
 48
0.0
 49
0.0
140
0.0
141
0.0
142
1.0
143
1.0
 70
   688
 72
     1
 73
     0
 74
     5
  7

 75
    16
147
1.0
148
0.0
149
0.0
100
AcDbLayout
  1
Layout1
 70
     1
 71
     1
 10
0.0
 20
0.0
 11
420.0
 21
297.0
 12
0.0
 22
0.0
 32
0.0
 14
1.0000000000E+20
 24
1.0000000000E+20
 34
1.0000000000E+20
 15
-1.0000000000E+20
 25
-1.0000000000E+20
 35
-1.0000000000E+20
146
0.0
 13
0.0
 23
0.0
 33
0.0
 16
1.0
 26
0.0
 36
0.0
 17
0.0
 27
1.0
 37
0.0
 76
     0
330
1B
  0
LAYOUT
  5
26
102
{ACAD_REACTORS
330
1A
102
}
330
1A
100
AcDbPlotSettings
  1

  2
none_device
  4

  6

 40
0.0
 41
0.0
 42
0.0
 43
0.0
 44
0.0
 45
0.0
 46
0.0
 47
0.0
 48
0.0
 49
0.0
140
0.0
141
0.0
142
1.0
143
1.0
 70
   688
 72
     1
 73
     0
 74
     5
  7

 75
    16
147
1.0
148
0.0
149
0.0
100
AcDbLayout
  1
Layout2
 70
     1
 71
     2
 10
0.0
 20
0.0
 11
0.0
 21
0.0
 12
0.0
 22
0.0
 32
0.0
 14
0.0
 24
0.0
 34
0.0
 15
0.0
 25
0.0
 35
0.0
146
0.0
 13
0.0
 23
0.0
 33
0.0
 16
1.0
 26
0.0
 36
0.0
 17
0.0
 27
1.0
 37
0.0
 76
     0
330
23
  0
LAYOUT
  5
22
102
{ACAD_REACTORS
330
1A
102
}
330
1A
100
AcDbPlotSettings
  1

  2
none_device
  4
Letter_(8.50_x_11.00_Inches)
  6

 40
6.35
 41
6.35
 42
6.35000508
 43
6.35000508
 44
215.9
 45
279.4
 46
0.0
 47
0.0
 48
0.0
 49
0.0
140
0.0
141
0.0
142
1.0
143
1.0
 70
  1712
 72
     1
 73
     0
 74
     0
  7

 75
     0
147
1.0
148
0.0
149
0.0
100
AcDbLayout
  1
Model
 70
     1
 71
     0
 10
0.0
 20
0.0
 11
279.4
 21
215.9
 12
0.0
 22
0.0
 32
0.0
 14
0.0
 24
0.0
 34
0.0
 15
279.4
 25
215.9
 35
0.0
146
0.0
 13
0.0
 23
0.0
 33
0.0
 16
1.0
 26
0.0
 36
0.0
 17
0.0
 27
1.0
 37
0.0
 76
     0
330
1F
331
29
  0
MLINESTYLE
  5
18
102
{ACAD_REACTORS
330
17
102
}
330
17
100
AcDbMlineStyle
  2
Standard
 70
     0
  3

 62
   256
 51
90.0
 52
90.0
 71
     2
 49
0.5
 62
   256
  6
BYLAYER
 49
-0.5
 62
   256
  6
BYLAYER
  0
ACDBPLACEHOLDER
  5
F
102
{ACAD_REACTORS
330
E
102
}
330
E
  0
SCALE
  5
48
102
{ACAD_REACTORS
330
47
102
}
330
47
100
AcDbScale
 70
     0
300
1:1
140
1.0
141
1.0
290
     1
  0
SCALE
  5
49
102
{ACAD_REACTORS
330
47
102
}
330
47
100
AcDbScale
 70
     0
300
1:2
140
1.0
141
2.0
290
     0
  0
SCALE
  5
4A
102
{ACAD_REACTORS
330
47
102
}
330
47
100
AcDbScale
 70
     0
300
1:4
140
1.0
141
4.0
290
     0
  0
SCALE
  5
4B
102
{ACAD_REACTORS
330
47
102
}
330
47
100
AcDbScale
 70
     0
300
1:5
140
1.0
141
5.0
290
     0
  0
SCALE
  5
4C
102
{ACAD_REACTORS
330
47
102
}
330
47
100
AcDbScale
 70
     0
300
1:8
140
1.0
141
8.0
290
     0
  0
SCALE
  5
4D
102
{ACAD_REACTORS
330
47
102
}
330
47
100
AcDbScale
 70
     0
300
1:10
140
1.0
141
10.0
290
     0
  0
SCALE
  5
4E
102
{ACAD_REACTORS
330
47
102
}
330
47
100
AcDbScale
 70
     0
300
1:16
140
1.0
141
16.0
290
     0
  0
SCALE
  5
4F
102
{ACAD_REACTORS
330
47
102
}
330
47
100
AcDbScale
 70
     0
300
1:20
140
1.0
141
20.0
290
     0
  0
SCALE
  5
50
102
{ACAD_REACTORS
330
47
102
}
330
47
100
AcDbScale
 70
     0
300
1:30
140
1.0
141
30.0
290
     0
  0
SCALE
  5
51
102
{ACAD_REACTORS
330
47
102
}
330
47
100
AcDbScale
 70
     0
300
1:40
140
1.0
141
40.0
290
     0
  0
SCALE
  5
52
102
{ACAD_REACTORS
330
47
102
}
330
47
100
AcDbScale
 70
     0
300
1:50
140
1.0
141
50.0
290
     0
  0
SCALE
  5
53
102
{ACAD_REACTORS
330
47
102
}
330
47
100
AcDbScale
 70
     0
300
1:100
140
1.0
141
100.0
290
     0
  0
SCALE
  5
54
102
{ACAD_REACTORS
330
47
102
}
330
47
100
AcDbScale
 70
     0
300
2:1
140
2.0
141
1.0
290
     0
  0
SCALE
  5
55
102
{ACAD_REACTORS
330
47
102
}
330
47
100
AcDbScale
 70
     0
300
4:1
140
4.0
141
1.0
290
     0
  0
SCALE
  5
56
102
{ACAD_REACTORS
330
47
102
}
330
47
100
AcDbScale
 70
     0
300
8:1
140
8.0
141
1.0
290
     0
  0
SCALE
  5
57
102
{ACAD_REACTORS
330
47
102
}
330
47
100
AcDbScale
 70
     0
300
10:1
140
10.0
141
1.0
290
     0
  0
SCALE
  5
58
102
{ACAD_REACTORS
330
47
102
}
330
47
100
AcDbScale
 70
     0
300
100:1
140
100.0
141
1.0
290
     0
  0
SCALE
  5
59
102
{ACAD_REACTORS
330
47
102
}
330
47
100
AcDbScale
 70
     0
300
1/128" = 1'-0"
140
0.0078125
141
12.0
290
     0
  0
SCALE
  5
5A
102
{ACAD_REACTORS
330
47
102
}
330
47
100
AcDbScale
 70
     0
300
1/64" = 1'-0"
140
0.015625
141
12.0
290
     0
  0
SCALE
  5
5B
102
{ACAD_REACTORS
330
47
102
}
330
47
100
AcDbScale
 70
     0
300
1/32" = 1'-0"
140
0.03125
141
12.0
290
     0
  0
SCALE
  5
5C
102
{ACAD_REACTORS
330
47
102
}
330
47
100
AcDbScale
 70
     0
300
1/16" = 1'-0"
140
0.0625
141
12.0
290
     0
  0
SCALE
  5
5D
102
{ACAD_REACTORS
330
47
102
}
330
47
100
AcDbScale
 70
     0
300
3/32" = 1'-0"
140
0.09375
141
12.0
290
     0
  0
SCALE
  5
5E
102
{ACAD_REACTORS
330
47
102
}
330
47
100
AcDbScale
 70
     0
300
1/8" = 1'-0"
140
0.125
141
12.0
290
     0
  0
SCALE
  5
5F
102
{ACAD_REACTORS
330
47
102
}
330
47
100
AcDbScale
 70
     0
300
3/16" = 1'-0"
140
0.1875
141
12.0
290
     0
  0
SCALE
  5
60
102
{ACAD_REACTORS
330
47
102
}
330
47
100
AcDbScale
 70
     0
300
1/4" = 1'-0"
140
0.25
141
12.0
290
     0
  0
SCALE
  5
61
102
{ACAD_REACTORS
330
47
102
}
330
47
100
AcDbScale
 70
     0
300
3/8" = 1'-0"
140
0.375
141
12.0
290
     0
  0
SCALE
  5
62
102
{ACAD_REACTORS
330
47
102
}
330
47
100
AcDbScale
 70
     0
300
1/2" = 1'-0"
140
0.5
141
12.0
290
     0
  0
SCALE
  5
63
102
{ACAD_REACTORS
330
47
102
}
330
47
100
AcDbScale
 70
     0
300
3/4" = 1'-0"
140
0.75
141
12.0
290
     0
  0
SCALE
  5
64
102
{ACAD_REACTORS
330
47
102
}
330
47
100
AcDbScale
 70
     0
300
1" = 1'-0"
140
1.0
141
12.0
290
     0
  0
SCALE
  5
65
102
{ACAD_REACTORS
330
47
102
}
330
47
100
AcDbScale
 70
     0
300
1-1/2" = 1'-0"
140
1.5
141
12.0
290
     0
  0
SCALE
  5
66
102
{ACAD_REACTORS
330
47
102
}
330
47
100
AcDbScale
 70
     0
300
3" = 1'-0"
140
3.0
141
12.0
290
     0
  0
SCALE
  5
67
102
{ACAD_REACTORS
330
47
102
}
330
47
100
AcDbScale
 70
     0
300
6" = 1'-0"
140
6.0
141
12.0
290
     0
  0
SCALE
  5
68
102
{ACAD_REACTORS
330
47
102
}
330
47
100
AcDbScale
 70
     0
300
1'-0" = 1'-0"
140
12.0
141
12.0
290
     0
  0
ENDSEC
  0
EOF
